Led Zeppelin

home > Led Zeppelin

Moby Dick Tab

Led Zeppelin

Difficulty: ExpertExpert

tuner correct add songbook print version text version save to e-mail
chordsukulelecavacokeyboardtabbassdrummharmonicsflute Guitar Pro
chords

Moby Dick

	  Riff 1: 

e|------------------------| 
B|------------------------| 
G|------------------------| 
D|------------------------| 
A|---5--5-3-0-------------| 
D|-0----------3--5-3--5-3-| (4x) 

Riff 2: 

e|-------------------------| 
B|-------------------------| 
G|-------------------------| 
D|----5--5-3-0-------------| 
A|-------------1--3-1--3-1-| 
D|-5-----------------------| 

Riff 3: 

e|--------------------------------------------------------------| 
B|--------------------------------------------------------------| 
G|--------------------------------------------5b7---7r5---2-----| 
D|----7--7-5---7--7-----5--7--/5-5-5-5-5-3------------------5-3-| 
A|-----------7-------7----------------------5-------------------| 
D|-7------------------------------------------------------------| 


Solo 1: 


e|----------10------------------------------------------| 
B|-------10---------------------------------------------| 
G|-12b14-------12b14r12p10----12-10--------------12-10\-| 
D|-------------------------12-------12--12-10-12--------| 
A|------------------------------------------------------| 
D|------------------------------------------------------| 

Solo 2: 

e|-------10-10-------10-10-10-12b14--10-----12b14-10------| 
B|-13b15-------13b15-------------------10-----------10----| 
G|---------------------------------------12-----------12\-| 
D|--------------------------------------------------------| 
A|--------------------------------------------------------| 
D|--------------------------------------------------------| 

Solo 3: 

e|-3p1p0-----------------------3p1p0--------------------------| 
B|--------3p1p0-----------------------3p1p0-------------------| 
G|---------------4p2p0----------------------4p2p0-------------| 
D|----------------------3p2p0---------------------3p2p0-------| 
A|------------------------------------------------------3p2p0-| 
D|------------------------------------------------------------| 

Solo 4: 

e|--------------------------------10---------------| 
B|--------------------------10-12----13b15--13b15--| 
G|---------------7-7-7-9/11------------------------| 
D|-----------7-9-----------------------------------| 
A|-5-5-5-7/9---------------------------------------| 
D|-------------------------------------------------| 

	  

there isn't a video lesson for this song

request
Search
auto scroll beats size up size down change color hide chords drawings
tab show chords e-chords YouTube Clip e-chords hide all tabs e-chords go to top tab