Led Zeppelin

home > Led Zeppelin

Love Child Tab

Led Zeppelin

Difficulty: ExpertExpert

tuner correct add songbook print version text version save to e-mail
chordsukulelecavacokeyboardtabbassdrumsharmonicsflute Guitar Pro
chords

Love Child

	    
/=SLIDE  
  
  
PARTE A:INTRODUÇÃO  
                                TOQUE 4X   
E||--------||---------------------------------------------------------|   
B||--------||---------------------------------------------------------|   
G||--------||---------------------------------------------------------|   
D||--------||---------------------------5/7---5-----------------------|   
A||--------||-----------5---6---------------------7-----------5-------|   
E||--12/---||--\5---8-----------8---5-----------------5---8-------8---|   
    
   
PARTE B:CANTO  
   TOQUE2X(ABAFE COM A MÃO DIREITA}  
E||------------------------------------------||-----------------------|   
B||------------------------------------------||-----------------------|   
G||------------------------------------------||--------5--------------|   
D||--3-3-3-3-3---3-3-3-3---3-3-3-3-3---3-3---||--------5--------------|   
A||--3-3-3-3-3---3-3-3-3---3-3-3-3-3---3-3---||--------3--------------|   
E||--1-1-1-1-1---1-1-1-1---1-1-1-1-1---1-1---||-----------------------|   
    
   
PARTE A:  
                    TOQUE 2X  
E||-------------------------------------------------------------------|   
B||-------------------------------------------------------------------|   
G||-------------------------------------------------------------------|   
D||---------------------------5/7---5---------------------------------|   
A||-----------5---6---------------------7-----------5-----------------|   
E||---5---8-----------8---5-----------------5---8-------8-------------|   
    
   
PARTE B:CANTO  
   TOQUE 2X(ABAFE COM A MÃO DIREITA)  
E||------------------------------------------||-----------------------|   
B||------------------------------------------||-----------------------|   
G||------------------------------------------||--------5--------------|   
D||--3-3-3-3-3---3-3-3-3---3-3-3-3-3---3-3---||--------5--------------|   
A||--3-3-3-3-3---3-3-3-3---3-3-3-3-3---3-3---||--------3--------------|   
E||--1-1-1-1-1---1-1-1-1---1-1-1-1-1---1-1---||-----------------------|   
   
  
PARTE A:             
                    TOQUE 2X  
E||-------------------------------------------------------------------|   
B||-------------------------------------------------------------------|   
G||-------------------------------------------------------------------|   
D||---------------------------5/7---5---------------------------------|   
A||-----------5---6---------------------7-----------5-----------------|   
E||---5---8-----------8---5-----------------5---8-------8-------------|   
    
PARTE C:REFRÃO  
                     TOQUE 2X(ATENÇÃO A ACENTUAÇÃO MUDA)  
E||-------------------------------------------------------------------|   
B||-------------------------------------------------------------------|   
G||-------------------------------------------------------------------|   
D||-------------------------------------------------------------------|   
A||---8---7---5-------5-----------8---7---5-------5-------------------|   
E||---------------8-------3---5---------------8-------3---5-----------|   
    
PARTE A:             
                    TOQUE 2X  
E||-------------------------------------------------------------------|   
B||-------------------------------------------------------------------|   
G||-------------------------------------------------------------------|   
D||---------------------------5/7---5---------------------------------|   
A||-----------5---6---------------------7-----------5-----------------|   
E||---5---8-----------8---5-----------------5---8-------8-------------|   
   
PARTE B:CANTO  
   TOQUE 2X(ABAFE COM A MÃO DIREITA)  
E||------------------------------------------||-----------------------|   
B||------------------------------------------||-----------------------|   
G||------------------------------------------||--------5--------------|   
D||--3-3-3-3-3---3-3-3-3---3-3-3-3-3---3-3---||--------5--------------|   
A||--3-3-3-3-3---3-3-3-3---3-3-3-3-3---3-3---||--------3--------------|   
E||--1-1-1-1-1---1-1-1-1---1-1-1-1-1---1-1---||-----------------------|   
  
    
PARTE A:             
                    TOQUE 2X  
E||-------------------------------------------------------------------|   
B||-------------------------------------------------------------------|   
G||-------------------------------------------------------------------|   
D||---------------------------5/7---5---------------------------------|   
A||-----------5---6---------------------7-----------5-----------------|   
E||---5---8-----------8---5-----------------5---8-------8-------------|   
    
  
PARTE D:BASE DO SOLO             
 TOQUE 8X(ABAFE COM A MÃO DIREITA)NA 8X NÃO TOQUE A NOTA INDICADA()  
E||-------------------------------------------------------------------|   
B||-------------------------------------------------------------------|   
G||-----------------------------------------------------------(5)-----|   
D||-----------7-------5-------5---5---7-----------7-------5-----------|   
A||-------7-------7-------7-----------------7-------7-----------------|   
E||---5---------------------------------5-----------------------------|   
  
    
PARTE A:             
                    TOQUE 3X  
E||-------------------------------------------------------------------|   
B||-------------------------------------------------------------------|   
G||-------------------------------------------------------------------|   
D||---------------------------5/7---5---------------------------------|   
A||-----------5---6---------------------7-----------5-----------------|   
E||---5---8-----------8---5-----------------5---8-------8-------------|   
    
PARTE FINAL:  
                      
E||---------------------------------||--------------------------------|   
B||---------------------------------||--------------------------------|   
G||---------------------------------||--------------------------------|   
D||---------------------------5/7---||--------------------------------|   
A||-----------5---6-----------------||-----------5--------------------|   
E||---5---8-----------8---5---------||---5---8-------8---5/-----------|   

	  

there isn't a video lesson for this song

request
Search
auto scroll beats size up size down change color hide chords drawings
tab show chords e-chords YouTube Clip e-chords hide all tabs e-chords go to top tab