Led Zeppelin

home > Led Zeppelin

Kashmire Tab

Led Zeppelin

Difficulty: BeginnerBeginner

by Joey161

tuner correct add songbook print version text version save to e-mail
chordsukulelecavacokeyboardtabbassdrumsharmonicsflute Guitar Pro
chords

Kashmire

	   
                                     KASHMIR 
                           As recorded by Led Zeppelin 
                     (From the 1975 Album PHYSICAL GRAFFITI) 
 
Words and Music by Jimmy Page, John Paul Jones and John Bonham 
Transcribed by GibLPCust 
 
         Dsus4                  D                   F/C                 Am/C 
    x x 12 12 0 12       x x 12 11 0 12       x x 10 10 0 10        x x 10 9 0 10 
 
         D5/A                   A                  Am7/G                Gadd9 
      x x 7 7 0 7          x x 7 6 0 7          x x 5 5 0 5          x x 5 4 0 5 
 
        Fadd11                  F                   G5                   A5 
      x x 3 3 0 3          x x 3 2 0 3          5 5 5 7 5 5          7 7 7 9 7 7 
 
Gtr I (D A D G A D) - 'Electric Guitar 1' 
Gtr II (D A D G A D) - 'Electric Guitar 2' 
Gtr III (E A D G B E) - 'Bass' 
Gtr IV (E A D G B E) - 'High Strings' 
 
 Intro 
  Moderately Q=84 
    N.C.(D5)       (D+)              (D6)                 (D7) 
 4/4 
  Gtr I 
  S S E E S S E E  S S E   E S S E E  S  S E E S S   E E  S S E E S S E E 
|------------------------|-------------------------|-----------------------| 
|------------------------|-------------------------|-----------------------| 
|-2-2-2---2-2-2----3-3-3-|---3-3-3----4--4-4---4-4-|-4----5-5-5---5-5-5----| 
|-0-0-0---0-0-0----0-0-0-|---0-0-0----0--0-0---0-0-|-0----0-0-0---0-0-0----| 
|-5-5-5---5-5-5----5-5-5-|---5-5-5----5--5-5---5-5-|-5----5-5-5---5-5-5----| 
|---------------0--------|---------0-(0)-----------|---0----------------0--| 
  H           E Q.         Q     E E +Q      Q       E Q.       Q     E E 
 
 
  (D)       (D5)     (D+)              (D6)                 (D7) 
   S  S E E S S E E  S S E   E S S E E  S  S E E S S   E E  S S E E S S E E 
|--------------------------|-------------------------|----------------------|| 
|--------------------------|-------------------------|----------------------|| 
|--7--7-7---2-2-2----3-3-3-|---3-3-3----4--4-4---4-4-|-4----5-5-5---5-5-5---|| 
|--0--0-0---0-0-0----0-0-0-|---0-0-0----0--0-0---0-0-|-0----0-0-0---0-0-0---|| 
|--5--5-5---5-5-5----5-5-5-|---5-5-5----5--5-5---5-5-|-5----5-5-5---5-5-5---|| 
|-(0)-------------0--------|---------0-(0)-----------|---0----------------0-|| 
  +Q      Q     E Q.         Q     E E +Q      Q       E Q.       Q     E E 
 
 
   First Verse 
    (D)       (D5)     (D+) 
     S  S E E S S E E  S S E 
||---------------------------| 
||o--------------------------| 
||---7--7-7---2-2-2----3-3-3-| 
||---0--0-0---0-0-0----0-0-0-| 
||o--5--5-5---5-5-5----5-5-5-| 
||--(0)-------------0--------| 
    +Q      Q     E Q. 
 
 
            (D6)                 (D7) 
  E S S E E  S  S E E S S   E E  S S E E S S E E   4x 
|-------------------------|------------------------|| 
|-------------------------|-----------------------o|| 
|---3-3-3----4--4-4---4-4-|-4----5-5-5---5-5-5-----|| 
|---0-0-0----0--0-0---0-0-|-0----0-0-0---0-0-0-----|| 
|---5-5-5----5--5-5---5-5-|-5----5-5-5---5-5-5----o|| 
|---------0-(0)-----------|---0----------------0---|| 
  Q     E E +Q      Q       E Q.       Q     E E 
 
 
 Bridge 
  Dsus4   D       F/C       Am/C  D5/AA   Am7/GGadd9 Fadd11F 
  Gtr II 
   E.      S  +E   E    +S  E.    E   E   E.   S +E  E +S  E.   S S E 
   |       |   |   |     |  |     |   |   |    |  |  |  |  |    | | | 
   /       /   /   /     /  /     /   /   /    /  /  /  /  /    o o o 
 
  Gtr I 
   S  S E      E   S S   E     E  S S E   E  S S  E  E  S  S  E E   S S 
|---------------------------------------|-------------------------------| 
|---------------------------------------|-------------------------------| 
|--7--7-7----------2-2---2--------3-3-3-|----3-3--3-----4--4--4-----4-4-| 
|--0--0-0----------0-0---0--------0-0-0-|----0-0--0-----0--0--0-----0-0-| 
|--5--5-5----------5-5---5--------5-5-5-|----5-5--5-----5--5--5-----5-5-| 
|-(0)--------------------------0--------|------------0-(0)--------------| 
| +Q           Q         E     Q.         Q       E  E +Q       Q 
| 
| Gtr III 
|  E.      S  +E   E    +S  E.    e   e   E.   S +E  E +S  E.   S S E 
|-10------10-(10)--8----(8)-8-----5---5-|-3----3-(3)-1-(1)-1----1-0-----| 
|-12------10-(10)-10---(10)-8-----------|-5----3-(3)-3-(3)-1--------3---| 
|-12------11-(11)-10---(10)-9-----7---6-|-5----4-(4)-3-(3)-2------------| 
|---------------------------------------|-----------------------3-2-0---| 
|---------------------------------------|-------------------------------| 
|---------------------------------------|-------------------------------| 
 
 
  Dsus4  D         F/C     Am/C   D5AA  Am7/G   Gadd9 Fadd11  F 
   E.     S  +E     E  +S  E.     E E    E.     S +E  E   +S  E.    S S E 
   |      |   |     |   |  |      | |    |      |  |  |    |  |     | | | 
   /      /   /     /   /  /      / /    /      /  /  /    /  /     o o o 
 
   E  E       S  S  E   E     S S E E    S  S E    E  S S  E     E  S S E 
|-------------------------------------|-----------------------------------| 
|-------------------------------------|-----------------------------------| 
|--4----------5--5--5---------5-5-5---|--7--7-7-------2-2--2--------3-3-3-| 
|--0----------0--0--0---------0-0-0---|--0--0-0-------0-0--0--------0-0-0-| 
|--5----------5--5--5---------5-5-5---|--5--5-5-------5-5--5--------5-5-5-| 
|-----0-----------------------------0-|-(0)----------------------0--------| 
|  E  Q.                Q         E E   +Q         Q       E     Q. 
| 
|  E.     S  +E     E  +S  E.     e e    E.     S +E  E   +S  E.    S S E 
|-10-----10-(10)----8--(8)-8------5-5-|--3------3-(3)-1---(1)-1-----1-0---| 
|-12-----10-(10)---10-(10)-8----------|--5------3-(3)-3---(3)-1---------3-| 
|-12-----11-(11)---10-(10)-9------7-6-|--5------4-(4)-3---(3)-2-----------| 
|-------------------------------------|-----------------------------3-2-0-| 
|-------------------------------------|-----------------------------------| 
|-------------------------------------|-----------------------------------| 
 
 
                                                   Second & Fourth Verse 
                                                 $ 
    N.C.(D+)(D6)                 (D7)               (D)       (D5)     (D+) 
  E S S E E  S  S E E S S   E E  S S E E S S E E     S  S E E S S E E  S S E 
|-------------------------|----------------------||--------------------------| 
|-------------------------|----------------------||--------------------------| 
|---3-3-3----4--4-4---4-4-|-4----5-5-5---5-5-5---||--7--7-7---2-2-2----3-3-3-| 
|---0-0-0----0--0-0---0-0-|-0----0-0-0---0-0-0---||--0--0-0---0-0-0----0-0-0-| 
|---5-5-5----5--5-5---5-5-|-5----5-5-5---5-5-5---||--5--5-5---5-5-5----5-5-5-| 
|---------0-(0)-----------|---0----------------0-||-(0)-------------0--------| 
  Q     E E +Q      Q       E Q.       Q     E E    +Q      Q     E Q. 
 
 
              (D6)                 (D7) 
    E S S E E  S  S E E S S   E E  S S E E    S  S  E    E 
||--------------------------|---------------------------------| 
||o-------------------------|---------------------------------| 
||----3-3-3----4--4-4---4-4-|-4----5-5-5------5--5--5---------| 
||----0-0-0----0--0-0---0-0-|-0----0-0-0------0--0--0---------| 
||o---5-5-5----5--5-5---5-5-|-5----5-5-5------5--5--5---------| 
||----------0-(0)-----------|---0------------------------0----| 
|   Q     E E +Q      Q       E Q.       Q          E    E 
| 
|   Gtr III 
|   W                         H          S  S S  S  S  S S  S 
||--------------------------|---------------------------------| 
||o-------------------------|---------------------------------| 
||--------------------------|-----------------------4---------| 
||--------------------------|---------------7-6--7-----7-6--7-| 
||o-------------------------|---------------------------------| 
||--------------------------|---------------------------------| 
| 
|   Gtr IV 
|   W                         H          S  S S  S  S  S S  S 
||--------------------------|---------------------------------| 
||o-------------------------|--------------10-9-10-12-10-9-10-| 
||--------------------------|---------------------------------| 
||--------------------------|---------------------------------| 
||o-------------------------|---------------------------------| 
||--------------------------|---------------------------------| 
 
 
  (D)       (D5)     (D+) 
   S  S E E S S E E  S S E  3x 
|---------------------------|| 
|--------------------------o|| 
|--7--7-7---2-2-2----3-3-3--|| 
|--0--0-0---0-0-0----0-0-0--|| 
|--5--5-5---5-5-5----5-5-5-o|| 
|-(0)-------------0---------|| 
| +Q      Q     E Q. 
| 
|  ~~~ 
|  W                        3x 
|---------------------------|| 
|--------------------------o|| 
|---------------------------|| 
|--4------------------------|| 
|--------------------------o|| 
|---------------------------|| 
| 
|  ~~~ 
|  W                        3x 
|---------------------------|| 
|--------------------------o|| 
|-11------------------------|| 
|---------------------------|| 
|--------------------------o|| 
|---------------------------|| 
 
 
            (D6)                 (D7) 
  Gtr II 
  W                         W 
  Gtr I 
  E S S E E  S  S E E S S   E E  S S E E S S E E 
|-------------------------|----------------------|| 
|-------------------------|----------------------|| 
|---3-3-3----4--4-4---4-4-|-4----5-5-5---5-5-5---|| 
|---0-0-0----0--0-0---0-0-|-0----0-0-0---0-0-0---|| 
|---5-5-5----5--5-5---5-5-|-5----5-5-5---5-5-5---|| 
|---------0-(0)-----------|---0----------------0-|| 
| Q     E E +Q      Q       E Q.       Q     E E 
| 
| W                         W 
|-------------------------|----------------------|| 
|-------------------------|----------------------|| 
|-------------------------|----------------------|| 
|-------------------------|----------------------|| 
|-------------------------|----------------------|| 
|-------------------------|----------------------|| 
| 
| W                         W 
|-------------------------|----------------------|| 
|-------------------------|----------------------|| 
|-------------------------|----------------------|| 
|-------------------------|----------------------|| 
|-------------------------|----------------------|| 
|-------------------------|----------------------|| 
 
 
 Bridge 
  Dsus4   D       F/C       Am/C  D5/A A 
   E.      S  +E   E    +S  E.     E    E 
   |       |   |   |     |  |      |    | 
   /       /   /   /     /  /      /    / 
 
   S  S E      E   S S   E     E   S S  E 
|-----------------------------------------| 
|-----------------------------------------| 
|--7--7-7----------2-2---2---------3-3--3-| 
|--0--0-0----------0-0---0---------0-0--0-| 
|--5--5-5----------5-5---5---------5-5--5-| 
|-(0)--------------------------0----------| 
| +Q           Q         E     Q. 
| 
|  E.      S  +E   E    +S  E.     e    e 
|-10------10-(10)--8----(8)-8------5----5-| 
|-12------10-(10)-10---(10)-8-------------| 
|-12------11-(11)-10---(10)-9------7----6-| 
|-----------------------------------------| 
|-----------------------------------------| 
|-----------------------------------------| 
| 
|  E.      S  +E   E    +S  E.     e    e 
|-10------10-(10)--8----(8)-8-------------| 
|---------------------------------10---10-| 
|-----------------------------------------| 
|-----------------------------------------| 
|-----------------------------------------| 
|-----------------------------------------| 
 
 
  Am7/GGadd9 Fadd11  F                 Dsus4  D         F/C     Am/C   D5/A 
  E.   S +E   E  +S   E.    S S  E      E.     S  +E     E  +S  E.      E  E 
  |    |  |   |   |   |     | |  |      |      |   |     |   |  |       |  | 
  /    /  /   /   /   /     o o  o      /      /   /     /   /  /       /  / 
 
  E  S S  E   E   S   S  E  E    S S    E  E       S  S  E   E     S S  E  E 
|------------------------------------|---------------------------------------| 
|------------------------------------|---------------------------------------| 
|----3-3--3-------4---4--4-------4-4-|--4----------5--5--5---------5-5--5----| 
|----0-0--0-------0---0--0-------0-0-|--0----------0--0--0---------0-0--0----| 
|----5-5--5-------5---5--5-------5-5-|--5----------5--5--5---------5-5--5----| 
|-------------0--(0)-----------------|-----0-------------------------------0-| 
| Q       E   E  +Q         Q           E  Q.                Q          E  E 
| 
| E.   S +E   E  +S   E.    S S  E      E.     S  +E     E  +S  E.      e  e 
|-3----3-(3)--1--(1)--1-----1-0------|-10-----10-(10)----8--(8)-8-------5--5-| 
|-5----3-(3)--3--(3)--1----------3---|-12-----10-(10)---10-(10)-8------------| 
|-5----4-(4)--3--(3)--2--------------|-12-----11-(11)---10-(10)-9-------7--6-| 
|---------------------------3-2--0---|---------------------------------------| 
|------------------------------------|---------------------------------------| 
|------------------------------------|---------------------------------------| 
| 
| E.   S +E   E  +S   E.    S S  e      E.     S  +E     E  +S  E.      e  e 
|------------------------------------|-10-----10-(10)----8--(8)-8------------| 
|-8----8-(8)-------------------------|---------------------------------10-10-| 
|------------10-(10)-10----10-9------|---------------------------------------| 
|-------------------------------12---|---------------------------------------| 
|------------------------------------|---------------------------------------| 
|------------------------------------|---------------------------------------| 
 
 
  Am7/G   Gadd9 Fadd11    F                           N.C.(D6) 
   E.     S +E   E    +S   E.     S S  E    W 
   |      |  |   |     |   |      | |  | 
   /      /  /   /     /   /      o o  o 
 
   S  S E    E   S S   E      E   S S  E    E S S E E  S  S E E S S 
|----------------------------------------||-------------------------| 
|----------------------------------------||-------------------------| 
|--7--7-7--------2-2---2----------3-3--3-||---3-3-3----4--4-4---4-4-| 
|--0--0-0--------0-0---0----------0-0--0-||---0-0-0----0--0-0---0-0-| 
|--5--5-5--------5-5---5----------5-5--5-||---5-5-5----5--5-5---5-5-| 
|-(0)-------------------------0----------||---------0-(0)-----------| 
| +Q         Q         E      Q.            Q     E E +Q      Q 
| 
|  E.     S +E   E    +S   E.     S S  E    W 
|--3------3-(3)--1----(1)--1------1-0----||-------------------------| 
|--5------3-(3)--3----(3)--1-----------3-||-------------------------| 
|--5------4-(4)--3----(3)--2-------------||-------------------------| 
|---------------------------------3-2--0-||-------------------------| 
|----------------------------------------||-------------------------| 
|----------------------------------------||-------------------------| 
| 
|  E.     S +E   E    +S   E.     S S  e    E S S E E  S  S E E S S 
|----------------------------------------||-------------------------| 
|--8------8-(8)--------------------------||-------------------------| 
|---------------10---(10)-10-----10-9----||---3-3-3----4--4-4---4-4-| 
|-------------------------------------12-||-------------------------| 
|----------------------------------------||-------------------------| 
|----------------------------------------||-------------------------| 
 
 
              To Coda 
       (D7)              DsusD       F/C     Am/CD5/A 
                         Gtrs I, II 
  E E  S S E E S S E E    E.  S  +E   E  +S   E.  E  E 
|----------------------|-12--12-(12)-10-(10)-10---7--7-| 
|----------------------|--0---0--(0)--0--(0)--0---0--0-| 
|-4----5-5-5---5-5-5---|-12--11-(11)-10-(10)--9---7--6-| 
|-0----0-0-0---0-0-0---|-12--12-(12)-10-(10)-10---7--7-| 
|-5----5-5-5---5-5-5---|-------------------------------| 
|---0----------------0-|-------------------------------| 
| E Q.       Q     E E 
| 
| W                       E.  S  +E   E  +S   E.  e  e 
|----------------------|-10--10-(10)--8--(8)--8---5--5-| 
|----------------------|-12--10-(10)-10-(10)--8--------| 
|----------------------|-12--11-(11)-10-(10)--9---7--6-| 
|----------------------|-------------------------------| 
|----------------------|-------------------------------| 
|----------------------|-------------------------------| 
| 
| E E  S S E E S S E E    E.  S  +E   E  +S   E.  e  e 
|----------------------|-10--10-(10)--8--(8)--8--------| 
|----------------------|-------------------------10-10-| 
|-4----5-5-5---5-5-5---|-------------------------------| 
|----------------------|-------------------------------| 
|----------------------|-------------------------------| 
|----------------------|-------------------------------| 
 
 
                                      Interlude 
  Am7Gadd9 Fadd11  F     N.C.(Dm)      A5            A 
 9/8                                  4/4 
  E. S +E   E  +S   E. S S S S S S     E E E E E E E  E 
|-5--5-(5)--3--(3)--3--------------||-------------------| 
|-0--0-(0)--0--(0)--0--------------||o---------------12-| 
|-5--4-(4)--3--(3)--2--------------||--2-----2---2------| 
|-5--5-(5)--3--(3)--3--3-2-0-----0-||--2-----2---2---11-| 
|----------------------------0-2---||o-0-----0---0---12-| 
|----------------------------------||-------------------| 
| 
| E. S +E   E  +S   E. S S E   E       W 
|-3--3-(3)--1--(1)--1--1-0---------||-------------------| 
|-5--3-(3)--3--(3)--1------3-------||o------------------| 
|-5--4-(4)--3--(3)--2--------------||-------------------| 
|----------------------3-2-0-------||-------------------| 
|----------------------------------||o------------------| 
|----------------------------------||-------------------| 
| 
| E. S +E   E  +S   E. S S S S S S     W 
|----------------------------------||-------------------| 
|-8--8-(8)-------------------------||o------------------| 
|----------10-(10)-10--------------||-------------------| 
|----------------------3-2-0-----0-||-------------------| 
|----------------------------0-2---||o------------------| 
|----------------------------------||-------------------| 
 
 
        A5                        A          A5     N.C.(Dm) 
   +E   E Q  H      E E E E E E E  E    +E   E Q  E S S S S S S   4x 
|-----------------|------------------|----------------------------|| 
|-(12)\-----------|---------------12-|-(12)\---------------------o|| 
|-------2---------|-2-----2---2------|-------2--------------------|| 
|-(11)\-2---------|-2-----2---2---11-|-(11)\-2------3-2-0-----0---|| 
|-(12)\-0---------|-0-----0---0---12-|-(12)\-0------------0-2----o|| 
|-----------------|------------------|----------------------------|| 
 
 
  A5            A          A5                        A          A5 
  E E E E E E E  E    +E   E Q  H      E E E E E E E  E    +E   E Q  H 
|------------------|-----------------|------------------|-----------------|| 
|---------------12-|-(12)\-----------|---------------12-|-(12)\-----------|| 
|-2-----2---2------|-------2---------|-2-----2---2------|-------2---------|| 
|-2-----2---2---11-|-(11)\-2---------|-2-----2---2---11-|-(11)\-2---------|| 
|-0-----0---0---12-|-(12)\-0---------|-0-----0---0---12-|-(12)\-0---------|| 
|------------------|-----------------|------------------|-----------------|| 
 
 
   Bridge 
    DsusD       F/C     Am/CD5/A    Am7Gadd9 Fadd11  F 
     E.  S  +E   E  +S   E.  E  E   E. S +E   E  +S   E.  S S  E 
||--12--12-(12)-10-(10)-10---7--7-|-5--5-(5)--3--(3)--3-----------|| 
||o--0---0--(0)--0--(0)--0---0--0-|-0--0-(0)--0--(0)--0----------o|| 
||--12--11-(11)-10-(10)--9---7--6-|-5--4-(4)--3--(3)--2-----------|| 
||--12--12-(12)-10-(10)-10---7--7-|-5--5-(5)--3--(3)--3---3-2--0--|| 
||o-------------------------------|------------------------------o|| 
||--------------------------------|-------------------------------|| 
| 
|   Gtr III 
|    E.  S  +E   E  +S   E.  e  e   E. S +E   E  +S   E.  S S  E 
||--10--10-(10)--8--(8)--8---5--5-|-3--3-(3)--1--(1)--1---1-0-----|| 
||o-12--10-(10)-10-(10)--8--------|-5--3-(3)--3--(3)--1--------3-o|| 
||--12--11-(11)-10-(10)--9---7--6-|-5--4-(4)--3--(3)--2-----------|| 
||--------------------------------|-----------------------3-2--0--|| 
||o-------------------------------|------------------------------o|| 
||--------------------------------|-------------------------------|| 
| 
|   Gtr IV 
|    E.  S  +E   E  +S   E.  e  e   E. S +E   E  +S   E.  S S  e 
||--10--10-(10)--8--(8)--8--------|-------------------------------|| 
||o-------------------------10-10-|-8--8-(8)---------------------o|| 
||--------------------------------|----------10-(10)-10--10-9-----|| 
||--------------------------------|---------------------------12--|| 
||o-------------------------------|------------------------------o|| 
||--------------------------------|-------------------------------|| 
 
 
 Chorus 
  G5 
  Gtr I 
   Q  E. S S S E E E   +E      Q        E +Q         S   S  E 
|--5--5--5-5-5-5-5-5-|-(5)-----5--------5-(5)--------5---5--5----| 
|--5--5--5-5-5-5-5-5-|-(5)-----5--------5-(5)--------5---5--5----| 
|--7--7--7-7-7-7-7-7-|-(7)-----7--------7-(7)--------7---7--7----| 
|--5--5--5-5-5-5-5-5-|-(5)-----5--------5-(5)--------5---5--5----| 
|--5--5--5-5-5-5-5-5-|-(5)-----5--------5-(5)--------5---5--5----| 
|--5--5--5-5-5-5-5-5-|-(5)-----5--------5-(5)--------5---5--5----| 
| 
| Gtr IV 
|  ~~ 
|                                          |--3---| 
|  W                    S   S  E  E     E  E   E  E  S   S  S  S 
|--------------------|------------------------------12-----------| 
|--------------------|------------------------14-15-----15-14-11-| 
|-12-----------------|-14--15-14-12----14-15-------------------6-| 
|--5-----------------|--7---8--7-(7)-5--5-(5)-------(5)--7--8----| 
|--------------------|-------------------------------------------| 
|--------------------|-------------------------------------------| 
   W                    S   S  E +S  S  E +Q        +S   S  S  S 
 
 
  A5 
   Q   E. S S S E +E     E      E    E   Q    +Q         E  S  S 
|--7---7--7-7-7-7-(7)----7---|--7----7---7----(7)--------7--7--7-| 
|--7---7--7-7-7-7-(7)----7---|--7----7---7----(7)--------7--7--7-| 
|--9---9--9-9-9-9-(9)----9---|--9----9---9----(9)--------9--9--9-| 
|--7---7--7-7-7-7-(7)----7---|--7----7---7----(7)--------7--7--7-| 
|--7---7--7-7-7-7-(7)----7---|--7----7---7----(7)--------7--7--7-| 
|--7---7--7-7-7-7-(7)----7---|--7----7---7----(7)--------7--7--7-| 
| 
|  ~~~                          ~~~            ~~~ 
|                                              |--3---| 
|  H.              S  S  S S   +H              E   E  E  E  S  S 
|-12--------------10--9-10-9-|-(9)-------------------------------| 
|--5--------------(5)------5-|-(5)------------11--10-10-11-11-11-| 
|------------------------6---|-----7-6---------------------------| 
|----------------------------|---------8-7--8--7-----------------| 
|----------------------------|-----------------------------------| 
|----------------------------|-----------------------------------| 
   H.             +E     S S   +S  S S S E. S  H 
 
 
  G5 
   Q   E. S S S E E E   +E     Q          E    +Q            S  S  E 
|--5---5--5-5-5-5-5-5-|-(5)----5----------5----(5)-----------5--5--5----| 
|--5---5--5-5-5-5-5-5-|-(5)----5----------5----(5)-----------5--5--5----| 
|--7---7--7-7-7-7-7-7-|-(7)----7----------7----(7)-----------7--7--7----| 
|--5---5--5-5-5-5-5-5-|-(5)----5----------5----(5)-----------5--5--5----| 
|--5---5--5-5-5-5-5-5-|-(5)----5----------5----(5)-----------5--5--5----| 
|--5---5--5-5-5-5-5-5-|-(5)----5----------5----(5)-----------5--5--5----| 
| 
|  ~~~ 
|                        |---3----|  |---3---| 
|  H.             Q      E   E    E  E  E    E  S   S  S  S  S  S  S  S 
|---------------------|----------------12-------------12-13-12-------12-| 
|---------------------|----------14-15------14-14--15-----6----15-14----| 
|-12------------------|-14--15-------7--9----7--6---7--9-----9--6--7--9-| 
|--5------------------|--7---8----9-------------------------------------| 
|---------------------|-------------------------------------------------| 
|---------------------|-------------------------------------------------| 
   H.             Q      E   E    E  E  E    E  S   S  S  S  S  S  S  S 
                         |---3----|  |---3---| 
 
 
  A5 
   Q    E.        S   S  S E  +E      E       E  E   Q        +Q      E  S S 
|--7----7---------7---7--7-7--(7)-----7----|--7--7---7--------(7)-----7--7-7---| 
|--7----7---------7---7--7-7--(7)-----7----|--7--7---7--------(7)-----7--7-7---| 
|--9----9---------9---9--9-9--(9)-----9----|--9--9---9--------(9)-----9--9-9---| 
|--7----7---------7---7--7-7--(7)-----7----|--7--7---7--------(7)-----7--7-7---| 
|--7----7---------7---7--7-7--(7)-----7----|--7--7---7--------(7)-----7--7-7---| 
|--7----7---------7---7--7-7--(7)-----7----|--7--7---7--------(7)-----7--7-7---| 
| 
| Gtr III 
|  H                  Q        E      E      +H.                      Q 
|------------------------------------------|-----------------------------------| 
|------------------------------------------|-----------------------------------| 
|-------------------------------------2----|-(2)-------------------------------| 
|-------------------------------------2----|-(2)-------------------------------| 
|-------------------------------------4----|-(4)-------------------------------| 
|------------------------------------------|-----------------------------------| 
| 
| Gtr IV 
|  Q   +S   S  S  S  +Q       +S   S  S  S    Q     +S  S  E  +E  S S E.   T T 
|-12--(12)-------12-(12)-----(12)-13-10-13-|-12----(12)------------------------| 
|--5---(5)-14-10--5--(5)------(5)--6-----6-|--5-----(5)-8-10-(10)-8-6-5------6-| 
|-----------6-------------------------7----|-------------------------------7---| 
|--------------7---------------------------|------------5--7--(7)-5-3-2------3-| 
|------------------------------------------|-------------------------------5---| 
|------------------------------------------|-----------------------------------| 
   Q   +S   S  S  S  +Q       +S   S  S  S    Q     +S  S  E  +E  S S E.   T T 
 
 
  G5 
  Q   E. S S S E E  E      +E   Q     E +Q         S S    E 
|-5---5--5-5-5-5-5--5----|-(5)--5-----5-(5)--------5-5----5----| 
|-5---5--5-5-5-5-5--5----|-(5)--5-----5-(5)--------5-5----5----| 
|-7---7--7-7-7-7-7--7----|-(7)--7-----7-(7)--------7-7----7----| 
|-5---5--5-5-5-5-5--5----|-(5)--5-----5-(5)--------5-5----5----| 
|-5---5--5-5-5-5-5--5----|-(5)--5-----5-(5)--------5-5----5----| 
|-5---5--5-5-5-5-5--5----|-(5)--5-----5-(5)--------5-5----5----| 
| 
| Gtr IV 
|                                                  |----3----| 
| H.             E  S  S    E   E  E  E  E   S  S  E    E    E 
|------------------------|----------------------9-10---12---10-| 
|-8----------------10-11-|-10-----10----10--11-----------------| 
|------------------------|-----12----12------------7----9----7-| 
|-5-----------------7--8-|--7---5--7--5--7---8-11--------------| 
|------------------------|-------------------------------------| 
|------------------------|-------------------------------------| 
  H.             E  S  S    E   E  E  E  E   S  S  E    E    E 
                                                   |----3----| 
 
 
  A5 
  Q           E.    S  S  S E +E    E 
|-7-----------7-----7--7--7-7-(7)---7----| 
|-7-----------7-----7--7--7-7-(7)---7----| 
|-9-----------9-----9--9--9-9-(9)---9----| 
|-7-----------7-----7--7--7-7-(7)---7----| 
|-7-----------7-----7--7--7-7-(7)---7----| 
|-7-----------7-----7--7--7-7-(7)---7----| 
| 
| Gtr III 
| H                    Q       E    S  S 
|----------------------------------------| 
|----------------------------------------| 
|-----------------------------------2--2-| 
|-----------------------------------2--2-| 
|----------------------------------------| 
|----------------------------------------| 
| 
| Gtr IV 
| S  S  S  S  E   S S +Q       S  S S  S 
|-9-10-12-13-12--10-9-(9)-----10--9-6----| 
|-------------------------------------10-| 
|----7--9-10--9---7-6-(6)------7--6------| 
|-7---------------------------------8--7-| 
|----------------------------------------| 
|----------------------------------------| 
  S  S  S  S  E   S S +Q       S  S S  S 
 
 
    E   E    Q       +Q         E  S S 
|---7---7----7-------(7)--------7--7-7-| 
|---7---7----7-------(7)--------7--7-7-| 
|---9---9----9-------(9)--------9--9-9-| 
|---7---7----7-------(7)--------7--7-7-| 
|---7---7----7-------(7)--------7--7-7-| 
|---7---7----7-------(7)--------7--7-7-| 
| 
|  +Q        Q        E.     S +E  E 
|--------------------------------------| 
|--------------------------------------| 
|--(2)----------------2------2-(2)-----| 
|--(2)----------------2------2-(2)-----| 
|--------------------------------------| 
|--------------------------------------| 
| 
|  +E   S S +E   S S +S  S E   +E  S S 
|--------------------------------------| 
|-(10)-11-8-(8)-10-6-(6)-8-----------6-| 
|--------------------------9---(9)-9---| 
|--(7)--8-5-(5)--7-------5-------------| 
|------------------8-(8)---7---(7)-7-8-| 
|--------------------------------------| 
   +E   S S +E   S S +S  S E   +E  S S 
 
 
  G5 
  Q   E. S S S E E E   +E        Q     E +Q            S  S  E 
|-5---5--5-5-5-5-5-5-|-(5)-------5-----5-(5)-----------5--5--5-| 
|-5---5--5-5-5-5-5-5-|-(5)-------5-----5-(5)-----------5--5--5-| 
|-7---7--7-7-7-7-7-7-|-(7)-------7-----7-(7)-----------7--7--7-| 
|-5---5--5-5-5-5-5-5-|-(5)-------5-----5-(5)-----------5--5--5-| 
|-5---5--5-5-5-5-5-5-|-(5)-------5-----5-(5)-----------5--5--5-| 
|-5---5--5-5-5-5-5-5-|-(5)-------5-----5-(5)-----------5--5--5-| 
| 
| Gtr IV 
|                       |--3---| 
| H.             Q      S   S  S E +Q     S   S  S  S  S  E. 
|--------------------|-------------------13--12-10--9-10-12----| 
|-8------------------|-10--11-10-8-(8)-------------------------| 
|--------------------|-------------------10---9-----------9----| 
|-5------------------|--7---8--7-5-(5)----------12-11-12-------| 
|--------------------|-----------------------------------------| 
|--------------------|-----------------------------------------| 
  H.             Q      S   S  S E +Q     S   S  S  S  S  E. 
                        |--3---| 
 
 
  A5 
    Q          E.      S  S S  E     +E  E 
|---7----------7-------7--7-7--7-----(7)-7---| 
|---7----------7-------7--7-7--7-----(7)-7---| 
|---9----------9-------9--9-9--9-----(9)-9---| 
|---7----------7-------7--7-7--7-----(7)-7---| 
|---7----------7-------7--7-7--7-----(7)-7---| 
|---7----------7-------7--7-7--7-----(7)-7---| 
| 
| Gtr III 
|   H                     Q           E  S S 
|--------------------------------------------| 
|--------------------------------------------| 
|----------------------------------------2-2-| 
|----------------------------------------2-2-| 
|----------------------------------------4-4-| 
|--------------------------------------------| 
| 
| Gtr IV 
|              |--3--| 
|  +S   S S  S E   E E    S S  S  S  +Q 
|-(12)-10-9----9-----9------9----------------| 
|-----------11----11-----11---11-10-(10)-----| 
|--(9)--7-6----6-----6------6----------------| 
|------------8-----8------8----8--7--(7)-----| 
|--------------------------------------------| 
|--------------------------------------------| 
   +S   S S  S E   E E    S S  S  S  +Q 
               |--3--| 
 
 
    E  E  Q          +Q          E  S  S 
|---7--7--7----------(7)---------7--7--7--| 
|---7--7--7----------(7)---------7--7--7--| 
|---9--9--9----------(9)---------9--9--9--| 
|---7--7--7----------(7)---------7--7--7--| 
|---7--7--7----------(7)---------7--7--7--| 
|---7--7--7----------(7)---------7--7--7--| 
| 
|  +H.                           Q 
|-----------------------------------------| 
|-----------------------------------------| 
|--(2)------------------------------------| 
|--(2)------------------------------------| 
|--(4)------------------------------------| 
|-----------------------------------------| 
| 
|  +Q     S  S  S  S  S   S S S  E.    S 
|--------12-13-10-12--9--10-6-9-----------| 
|-(10)--------------------------10----10--| 
|---------9-10-----9--6---7---6-----------| 
|--(7)---------12-----------8----7-----7--| 
|-----------------------------------------| 
|-----------------------------------------| 
   +Q     S  S  S  S  S   S S S  E.    S 
 
 
  G5 
  Q   E.     S  S  S  E   E   E       +E   Q          E     +Q    S  S  E 
|-5---5------5--5--5--5---5---5----|--(5)--5----------5-----(5)---5--5--5-| 
|-5---5------5--5--5--5---5---5----|--(5)--5----------5-----(5)---5--5--5-| 
|-7---7------7--7--7--7---7---7----|--(7)--7----------7-----(7)---7--7--7-| 
|-5---5------5--5--5--5---5---5----|--(5)--5----------5-----(5)---5--5--5-| 
|-5---5------5--5--5--5---5---5----|--(5)--5----------5-----(5)---5--5--5-| 
|-5---5------5--5--5--5---5---5----|--(5)--5----------5-----(5)---5--5--5-| 
| 
| H             Q         E   S  S    +H                     H 
|----------------------------------|--------------------------------------| 
|-----------------------------3--3-|--(3)---------------------------------| 
|----------------------------------|--------------------------------------| 
|-----------------------------0--0-|--(0)---------------------------------| 
|----------------------------------|--------------------------------------| 
|-----------------------------3--3-|--(3)---------------------------------| 
| 
| Gtr IV 
| Q.      S  S  S  S  E  +E   S  S    +E   S  S  +E   S  S  +Q    S  S  E 
|--------13-12-13-12-10-(10)--9-10-|-(10)-12-13-(13)-12-13-(13)--12-10-12-| 
|-8--------------------------------|--------------------------------------| 
|--------10--9-10--9---------------|-------9-10-(10)--9-10-(10)---9-----9-| 
|-5------------------12-(12)-11-12-|-(12)---------------------------12----| 
|----------------------------------|--------------------------------------| 
|----------------------------------|--------------------------------------| 
  Q.      S  S  S  S  E  +E   S  S    +E   S  S  +E   S  S  +Q    S  S  E 
 
 
  A5 
    Q   E. S  S  S E    +E  E     E  E  Q   +Q   E S S 
|---7---7--7--7--7-7----(7)-7-|---7--7--7---(7)--7-7-7-| 
|---7---7--7--7--7-7----(7)-7-|---7--7--7---(7)--7-7-7-| 
|---9---9--9--9--9-9----(9)-9-|---9--9--9---(9)--9-9-9-| 
|---7---7--7--7--7-7----(7)-7-|---7--7--7---(7)--7-7-7-| 
|---7---7--7--7--7-7----(7)-7-|---7--7--7---(7)--7-7-7-| 
|---7---7--7--7--7-7----(7)-7-|---7--7--7---(7)--7-7-7-| 
| 
| Gtr IV 
|                                            ~~~~ 
|  +Q   Q     E.      S  Q       +E  E  Q   +H 
|-(12)--9---------------------|------------------------| 
|------------10------11-10----|-(10)-8-10--(10)--------| 
|--(9)--6---------------------|------------------------| 
|-------------7-------8--7----|--(7)-5--7---(7)--------| 
|-----------------------------|------------------------| 
|-----------------------------|------------------------| 
   +Q   Q     E.      S  Q       +E  E  Q   +H 
 
 
  N.C.(D5)         (D+)              (D6)                 (D7) 
  S S E E S S E E  S S E   E S S E E  S  S E E S S   E E  S S E E S S E E 
|------------------------|-------------------------|----------------------| 
|------------------------|-------------------------|----------------------| 
|-2-2-2---2-2-2----3-3-3-|---3-3-3----4--4-4---4-4-|-4----5-5-5---5-5-5---| 
|-0-0-0---0-0-0----0-0-0-|---0-0-0----0--0-0---0-0-|-0----0-0-0---0-0-0---| 
|-5-5-5---5-5-5----5-5-5-|---5-5-5----5--5-5---5-5-|-5----5-5-5---5-5-5---| 
|---------------0--------|---------0-(0)-----------|---0----------------0-| 
  H           E Q.         Q     E E +Q      Q       E Q.       Q     E E 
 
 
  (D)       (D5)     (D+)              (D6)                 (D7) 
   S  S E E S S E E  S S E   E S S E E  S  S E E S S   E E  S S E E S S E E 
|--------------------------|-------------------------|----------------------|| 
|--------------------------|-------------------------|----------------------|| 
|--7--7-7---2-2-2----3-3-3-|---3-3-3----4--4-4---4-4-|-4----5-5-5---5-5-5---|| 
|--0--0-0---0-0-0----0-0-0-|---0-0-0----0--0-0---0-0-|-0----0-0-0---0-0-0---|| 
|--5--5-5---5-5-5----5-5-5-|---5-5-5----5--5-5---5-5-|-5----5-5-5---5-5-5---|| 
|-(0)-------------0--------|---------0-(0)-----------|---0----------------0-|| 
  +Q      Q     E Q.         Q     E E +Q      Q       E Q.       Q     E E 
 
 
 Third Verse 
  (D)       (D5)     (D+)              (D6) 
   S  S E E S S E E  S S E   E S S E E  S  S E E S S 
|--------------------------|-------------------------| 
|--------------------------|-------------------------| 
|--7--7-7---2-2-2----3-3-3-|---3-3-3----4--4-4---4-4-| 
|--0--0-0---0-0-0----0-0-0-|---0-0-0----0--0-0---0-0-| 
|--5--5-5---5-5-5----5-5-5-|---5-5-5----5--5-5---5-5-| 
|-(0)-------------0--------|---------0-(0)-----------| 
| +Q      Q     E Q.         Q     E E +Q      Q 
| 
| Gtr III 
|  W                         W 
|--------------------------|-------------------------| 
|--------------------------|-------------------------| 
|--------------------------|-------------------------| 
|--------------------------|-------------------------| 
|--------------------------|-------------------------| 
|--------------------------|-------------------------| 
| 
| Gtr IV 
|  W                         W 
|--------------------------|-------------------------| 
|--------------------------|-------------------------| 
|--------------------------|-------------------------| 
|--------------------------|-------------------------| 
|--------------------------|-------------------------| 
|--------------------------|-------------------------| 
 
 
       (D7) 
  E E  S S E E    S  S  E    E 
|----------------------------------| 
|----------------------------------| 
|-4----5-5-5------5--5--5----------| 
|-0----0-0-0------0--0--0----------| 
|-5----5-5-5------5--5--5----------| 
|---0------------------------0-----| 
| E Q.       Q          E    E 
| 
| H          S  S S  S  S  S S  S 
|----------------------------------| 
|----------------------------------| 
|-----------------------4----------| 
|---------------7-6--7-----7-6--7--| 
|----------------------------------| 
|----------------------------------| 
| 
| H          S  S S  S  S  S S  S 
|----------------------------------| 
|--------------10-9-10-12-10-9-10--| 
|----------------------------------| 
|----------------------------------| 
|----------------------------------| 
|----------------------------------| 
 
 
  (D)       (D5)     (D+)              (D6) 
   S  S E E S S E E  S S E   E S S E E  S  S E E S S 
|--------------------------|-------------------------| 
|--------------------------|-------------------------| 
|--7--7-7---2-2-2----3-3-3-|---3-3-3----4--4-4---4-4-| 
|--0--0-0---0-0-0----0-0-0-|---0-0-0----0--0-0---0-0-| 
|--5--5-5---5-5-5----5-5-5-|---5-5-5----5--5-5---5-5-| 
|-(0)-------------0--------|---------0-(0)-----------| 
| +Q      Q     E Q.         Q     E E +Q      Q 
| 
|  ~~~ 
|  W                         W 
|--------------------------|-------------------------| 
|--------------------------|-------------------------| 
|--------------------------|-------------------------| 
|--4-----------------------|-------------------------| 
|--------------------------|-------------------------| 
|--------------------------|-------------------------| 
| 
|  ~~~ 
|  W                         W 
|--------------------------|-------------------------| 
|--7-----------------------|-------------------------| 
|--------------------------|-------------------------| 
|--------------------------|-------------------------| 
|--------------------------|-------------------------| 
|--------------------------|-------------------------| 
 
 
       (D7) 
  E E  S S E E    S  S  E    E 
|----------------------------------| 
|----------------------------------| 
|-4----5-5-5------5--5--5----------| 
|-0----0-0-0------0--0--0----------| 
|-5----5-5-5------5--5--5----------| 
|---0------------------------0-----| 
| E Q.       Q          E    E 
| 
| H          S  S S  S  S  S S  S 
|----------------------------------| 
|----------------------------------| 
|-----------------------4----------| 
|---------------7-6--7-----7-6--7--| 
|----------------------------------| 
|----------------------------------| 
| 
| H          S  S S  S  S  S S  S 
|----------------------------------| 
|--------------10-9-10-12-10-9-10--| 
|----------------------------------| 
|----------------------------------| 
|----------------------------------| 
|----------------------------------| 
 
 
  (D)       (D5)     (D+)              (D6) 
   S  S E E S S E E  S S E   E S S E E  S  S E E S S 
|--------------------------|-------------------------| 
|--------------------------|-------------------------| 
|--7--7-7---2-2-2----3-3-3-|---3-3-3----4--4-4---4-4-| 
|--0--0-0---0-0-0----0-0-0-|---0-0-0----0--0-0---0-0-| 
|--5--5-5---5-5-5----5-5-5-|---5-5-5----5--5-5---5-5-| 
|-(0)-------------0--------|---------0-(0)-----------| 
| +Q      Q     E Q.         Q     E E +Q      Q 
| 
|  ~~~ 
|  W                         W 
|--------------------------|-------------------------| 
|--------------------------|-------------------------| 
|--------------------------|-------------------------| 
|--4-----------------------|-------------------------| 
|--------------------------|-------------------------| 
|--------------------------|-------------------------| 
| 
|  ~~~ 
|  W                         W 
|--------------------------|-------------------------| 
|--7-----------------------|-------------------------| 
|--------------------------|-------------------------| 
|--------------------------|-------------------------| 
|--------------------------|-------------------------| 
|--------------------------|-------------------------| 
 
 
       (D7) 
  E E  S S E E    S  S  E    E 
|----------------------------------| 
|----------------------------------| 
|-4----5-5-5------5--5--5----------| 
|-0----0-0-0------0--0--0----------| 
|-5----5-5-5------5--5--5----------| 
|---0------------------------0-----| 
| E Q.       Q          E    E 
| 
| H          S  S S  S  S  S S  S 
|----------------------------------| 
|----------------------------------| 
|-----------------------4----------| 
|---------------7-6--7-----7-6--7--| 
|----------------------------------| 
|----------------------------------| 
| 
| H          S  S S  S  S  S S  S 
|----------------------------------| 
|--------------10-9-10-12-10-9-10--| 
|----------------------------------| 
|----------------------------------| 
|----------------------------------| 
|----------------------------------| 
 
 
  (D)       (D5)     (D+)              (D6)                 (D7) 
   S  S E E S S E E  S S E   E S S E E  S  S E E S S   E E  S S E E S S E E 
|--------------------------|-------------------------|----------------------|| 
|--------------------------|-------------------------|----------------------|| 
|--7--7-7---2-2-2----3-3-3-|---3-3-3----4--4-4---4-4-|-4----5-5-5---5-5-5---|| 
|--0--0-0---0-0-0----0-0-0-|---0-0-0----0--0-0---0-0-|-0----0-0-0---0-0-0---|| 
|--5--5-5---5-5-5----5-5-5-|---5-5-5----5--5-5---5-5-|-5----5-5-5---5-5-5---|| 
|-(0)-------------0--------|---------0-(0)-----------|---0----------------0-|| 
| +Q      Q     E Q.         Q     E E +Q      Q       E Q.       Q     E E 
| 
|  ~~~ 
|  W                         W                         W 
|--------------------------|-------------------------|----------------------|| 
|--------------------------|-------------------------|----------------------|| 
|--------------------------|-------------------------|----------------------|| 
|--4-----------------------|-------------------------|----------------------|| 
|--------------------------|-------------------------|----------------------|| 
|--------------------------|-------------------------|----------------------|| 
| 
|  ~~~ 
|  W                         E S S E E  S  S E E S S   E E  S S E E S S E E 
|--------------------------|-------------------------|----------------------|| 
|--7-----------------------|-------------------------|----------------------|| 
|--------------------------|---3-3-3----4--4-4---4-4-|-4----5-5-5---5-5-5---|| 
|--------------------------|-------------------------|----------------------|| 
|--------------------------|-------------------------|----------------------|| 
|--------------------------|-------------------------|----------------------|| 
 
 
 Bridge 
  Dsus4   D       F/C       Am/C  D5/AA   Am7/GGadd9 Fadd11F 
  Gtr II 
   E.      S  +E   E    +S  E.    E   E   E.   S +E  E +S  E.   S S E 
   |       |   |   |     |  |     |   |   |    |  |  |  |  |    | | | 
   /       /   /   /     /  /     /   /   /    /  /  /  /  /    o o o 
 
  Gtr I 
   S  S E      E   S S   E     E  S S E   E  S S  E  E  S  S  E E   S S 
|---------------------------------------|-------------------------------| 
|---------------------------------------|-------------------------------| 
|--7--7-7----------2-2---2--------3-3-3-|----3-3--3-----4--4--4-----4-4-| 
|--0--0-0----------0-0---0--------0-0-0-|----0-0--0-----0--0--0-----0-0-| 
|--5--5-5----------5-5---5--------5-5-5-|----5-5--5-----5--5--5-----5-5-| 
|-(0)--------------------------0--------|------------0-(0)--------------| 
| +Q           Q         E     Q.         Q       E  E +Q       Q 
| 
| Gtr III 
|  E.      S  +E   E    +S  E.    e   e   E.   S +E  E +S  E.   S S E 
|-10------10-(10)--8----(8)-8-----5---5-|-3----3-(3)-1-(1)-1----1-0-----| 
|-12------10-(10)-10---(10)-8-----------|-5----3-(3)-3-(3)-1--------3---| 
|-12------11-(11)-10---(10)-9-----7---6-|-5----4-(4)-3-(3)-2------------| 
|---------------------------------------|-----------------------3-2-0---| 
|---------------------------------------|-------------------------------| 
|---------------------------------------|-------------------------------| 
 
 
  Dsus4  D         F/C     Am/C   D5AA  Am7/G   Gadd9 Fadd11  F 
   E.     S  +E     E  +S  E.     E E    E.     S +E  E   +S  E.    S S E 
   |      |   |     |   |  |      | |    |      |  |  |    |  |     | | | 
   /      /   /     /   /  /      / /    /      /  /  /    /  /     o o o 
 
   E  E       S  S  E   E     S S E E    S  S E    E  S S  E     E  S S E 
|-------------------------------------|-----------------------------------| 
|-------------------------------------|-----------------------------------| 
|--4----------5--5--5---------5-5-5---|--7--7-7-------2-2--2--------3-3-3-| 
|--0----------0--0--0---------0-0-0---|--0--0-0-------0-0--0--------0-0-0-| 
|--5----------5--5--5---------5-5-5---|--5--5-5-------5-5--5--------5-5-5-| 
|-----0-----------------------------0-|-(0)----------------------0--------| 
|  E  Q.                Q         E E   +Q         Q       E     Q. 
| 
|  E.     S  +E     E  +S  E.     e e    E.     S +E  E   +S  E.    S S E 
|-10-----10-(10)----8--(8)-8------5-5-|--3------3-(3)-1---(1)-1-----1-0---| 
|-12-----10-(10)---10-(10)-8----------|--5------3-(3)-3---(3)-1---------3-| 
|-12-----11-(11)---10-(10)-9------7-6-|--5------4-(4)-3---(3)-2-----------| 
|-------------------------------------|-----------------------------3-2-0-| 
|-------------------------------------|-----------------------------------| 
|-------------------------------------|-----------------------------------| 
 
 
                                   D.S. al Coda 
    N.C.(D+)(D6)                 (D7) 
  E S S E E  S  S E E S S   E E  S S E E S S E E 
|-------------------------|----------------------|| 
|-------------------------|----------------------|| 
|---3-3-3----4--4-4---4-4-|-4----5-5-5---5-5-5---|| 
|---0-0-0----0--0-0---0-0-|-0----0-0-0---0-0-0---|| 
|---5-5-5----5--5-5---5-5-|-5----5-5-5---5-5-5---|| 
|---------0-(0)-----------|---0----------------0-|| 
| Q     E E +Q      Q       E Q.       Q     E E 
| 
| Gtr IV 
| E S S E E  S  S E E S S   E E  S S E E S S E E 
|-------------------------|----------------------|| 
|-------------------------|----------------------|| 
|---3-3-3----4--4-4---4-4-|-4----5-5-5---5-5-5---|| 
|-------------------------|----------------------|| 
|-------------------------|----------------------|| 
|-------------------------|----------------------|| 
 
 
    & 
    DsusD       F/C     Am/D5/A    Am7Gadd9 Fadd11  F 
    Gtrs I, II 
     E.  S  +E   E  +S  E.  E  E   E. S +E   E  +S   E.  S S  E 
     |   |   |   |   |  |   |  |   |  |  |   |   |   |   | |  | 
     /   /   /   /   /  /   /  /   /  /  /   /   /   /   o o  o 
 
    Gtr III 
     E.  S  +E   E  +S  E.  e  e   E. S +E   E  +S   E.  S S  E 
||--10--10-(10)--8--(8)-8---5--5-|-3--3-(3)--1--(1)--1---1-0-----|| 
||o-12--10-(10)-10-(10)-8--------|-5--3-(3)--3--(3)--1--------3-o|| 
||--12--11-(11)-10-(10)-9---7--6-|-5--4-(4)--3--(3)--2-----------|| 
||-------------------------------|-----------------------3-2--0--|| 
||o------------------------------|------------------------------o|| 
||-------------------------------|-------------------------------|| 
| 
|   Gtr IV 
|    E.  S  +E   E  +S  E.  e  e   E. S +E   E  +S   E.  S S  e 
||--10--10-(10)--8--(8)-8--------|-------------------------------|| 
||o------------------------10-10-|-8--8-(8)---------------------o|| 
||-------------------------------|----------10-(10)-10--10-9-----|| 
||-------------------------------|---------------------------12--|| 
||o------------------------------|------------------------------o|| 
||-------------------------------|-------------------------------|| 
 
 
 Out-Chorus 
  G5 
  Gtr I 
  Q  E. S S S E E E   +E  Q  E +Q   S S E 
|-5--5--5-5-5-5-5-5-|-(5)-5--5-(5)--5-5-5-| 
|-5--5--5-5-5-5-5-5-|-(5)-5--5-(5)--5-5-5-| 
|-7--7--7-7-7-7-7-7-|-(7)-7--7-(7)--7-7-7-| 
|-5--5--5-5-5-5-5-5-|-(5)-5--5-(5)--5-5-5-| 
|-5--5--5-5-5-5-5-5-|-(5)-5--5-(5)--5-5-5-| 
|-5--5--5-5-5-5-5-5-|-(5)-5--5-(5)--5-5-5-| 
| 
| Gtr IV 
| W                   +H.           E   E 
|-------------------|---------------------| 
|-------------------|---------------------| 
|-------------------|---------------2---3-| 
|-5-----------------|-(5)-----------------| 
|-2-----------------|-(2)-----------------| 
|-------------------|---------------------| 
 
 
  A5 
  Q   E.   S S S  E +E    E      E    E  Q      +Q   E     S S 
|-7---7----7-7-7--7-(7)---7---|--7----7--7------(7)--7-----7-7-| 
|-7---7----7-7-7--7-(7)---7---|--7----7--7------(7)--7-----7-7-| 
|-9---9----9-9-9--9-(9)---9---|--9----9--9------(9)--9-----9-9-| 
|-7---7----7-7-7--7-(7)---7---|--7----7--7------(7)--7-----7-7-| 
|-7---7----7-7-7--7-(7)---7---|--7----7--7------(7)--7-----7-7-| 
|-7---7----7-7-7--7-(7)---7---|--7----7--7------(7)--7-----7-7-| 
| 
| Gtr III 
| H          Q       E    S S   +H.                  Q 
|-----------------------------|--------------------------------| 
|-------------------------5-5-|-(5)----------------------------| 
|-------------------------6-6-|-(6)----------------------------| 
|-------------------------7-7-|-(7)----------------------------| 
|-----------------------------|--------------------------------| 
|-----------------------------|--------------------------------| 
| 
| Gtr IV 
| Q.     S S S E.    S  S S S    S  S E +E  S S  Q   S  S  E 
|-----------------------------|----------------------9-10-12---| 
|-5---------------------------|-----------------10-------------| 
|-2------3-6-7-9-----7--6-7-9-|-(9)------------------6--7--9---| 
|-------------------------7---|-----5-7-(7)-8-5--7-------------| 
|-0------1-4-5-7-----5--4-5-7-|--8-----------------------------| 
|-------------------------5---|--------------------------------| 
 
 
  G5 
   Q  E. S S S E E E   +E  Q  E +Q   S S E 
|--5--5--5-5-5-5-5-5-|-(5)-5--5-(5)--5-5-5-| 
|--5--5--5-5-5-5-5-5-|-(5)-5--5-(5)--5-5-5-| 
|--7--7--7-7-7-7-7-7-|-(7)-7--7-(7)--7-7-7-| 
|--5--5--5-5-5-5-5-5-|-(5)-5--5-(5)--5-5-5-| 
|--5--5--5-5-5-5-5-5-|-(5)-5--5-(5)--5-5-5-| 
|--5--5--5-5-5-5-5-5-|-(5)-5--5-(5)--5-5-5-| 
| 
| Gtr IV 
|  H       H            W 
|-10-----------------|---------------------| 
|--------------------|---------------------| 
|--7-----------------|-(7)-----------------| 
|--5-----------------|-(5)-----------------| 
|--------------------|---------------------| 
|--------------------|---------------------| 
   W                   +W 
 
 
  A5 
  Q  E. S S S E +E  E      E  E Q  +Q   E S S 
|-7--7--7-7-7-7-(7)-7---|--7--7-7--(7)--7-7-7-|| 
|-7--7--7-7-7-7-(7)-7---|--7--7-7--(7)--7-7-7-|| 
|-9--9--9-9-9-9-(9)-9---|--9--9-9--(9)--9-9-9-|| 
|-7--7--7-7-7-7-(7)-7---|--7--7-7--(7)--7-7-7-|| 
|-7--7--7-7-7-7-(7)-7---|--7--7-7--(7)--7-7-7-|| 
|-7--7--7-7-7-7-(7)-7---|--7--7-7--(7)--7-7-7-|| 
| 
| Gtr III 
| H       Q      E  S S   +H.           Q 
|-----------------------|---------------------|| 
|-------------------5-5-|-(5)-----------------|| 
|-------------------6-6-|-(6)-----------------|| 
|-------------------7-7-|-(7)-----------------|| 
|-----------------------|---------------------|| 
|-----------------------|---------------------|| 
| 
| Gtr IV 
| W                       +W 
|-----------------------|---------------------|| 
|-----------------------|---------------------|| 
|-9---------------------|-(9)-----------------|| 
|-----------------------|---------------------|| 
|-7---------------------|-(7)-----------------|| 
|-----------------------|---------------------|| 
 
 
   Outro 
    G5 
    Q   E.   S  S  S E E E   +E  Q   E +Q      S S  E 
||--5---5----5--5--5-5-5-5-|-(5)-5---5-(5)-----5-5--5-| 
||o-5---5----5--5--5-5-5-5-|-(5)-5---5-(5)-----5-5--5-| 
||--7---7----7--7--7-7-7-7-|-(7)-7---7-(7)-----7-7--7-| 
||--5---5----5--5--5-5-5-5-|-(5)-5---5-(5)-----5-5--5-| 
||o-5---5----5--5--5-5-5-5-|-(5)-5---5-(5)-----5-5--5-| 
||--5---5----5--5--5-5-5-5-|-(5)-5---5-(5)-----5-5--5-| 
| 
|   Gtr IV 
|   Q.     E   +E    E Q      Q    Q    E   E  E    E 
||--3----------------------|--------------------------| 
||o------------------------|--------------------------| 
||-------------------3-5---|--7----9---10--12-14---16-| 
||--5------7---(7)---------|--------------------------| 
||o------------------1-3---|--5----7----8--10-12---14-| 
||--3------5---(5)---------|--------------------------| 
 
 
  A5 
   Q     E.       S   S  S E +E   E       E     E    Q     +Q   E   S S  8x 
|--7-----7--------7---7--7-7-(7)--7----|--7-----7----7-----(7)--7---7-7--|| 
|--7-----7--------7---7--7-7-(7)--7----|--7-----7----7-----(7)--7---7-7-o|| 
|--9-----9--------9---9--9-9-(9)--9----|--9-----9----9-----(9)--9---9-9--|| 
|--7-----7--------7---7--7-7-(7)--7----|--7-----7----7-----(7)--7---7-7--|| 
|--7-----7--------7---7--7-7-(7)--7----|--7-----7----7-----(7)--7---7-7-o|| 
|--7-----7--------7---7--7-7-(7)--7----|--7-----7----7-----(7)--7---7-7--|| 
| 
| Gtr III 
|  H                  Q       E   S  S   +H.                    Q        8x 
|--------------------------------------|---------------------------------|| 
|---------------------------------5--5-|-(5)----------------------------o|| 
|---------------------------------6--6-|-(6)-----------------------------|| 
|---------------------------------7--7-|-(7)-----------------------------|| 
|--------------------------------------|--------------------------------o|| 
|--------------------------------------|---------------------------------|| 
| 
| Gtr IV 
|  E  E  S   S  E    +Q       E   S  S    S   S S  S S S E +Q   S S E    8x 
|--------------------------------------|---------------------------------|| 
|-14-17-14--11-10---(10)---------10-11-|-10--11-8-10-6-8-5-(5)----------o|| 
|--------------------------------------|------------------------6-7-9----|| 
|-11-14-11---8--7----(7)----------7--8-|--7---8-5--7-3-5-2-(2)-----------|| 
|--------------------------------------|------------------------4-5-7---o|| 
|--------------------------------------|---------------------------------|| 
 
 
Duration Legend 
--------------- 
W - whole; H - half; Q - quarter; E - 8th; S - 16th; T - 32nd; X - 64th; a - acciaccatura 
+ - note tied to previous; . - note dotted; .. - note double dotted 
Uncapitalized letters represent notes that are staccato (1/2 duration) 
Irregular groupings are notated above the duration line 
Duration letters will always appear directly above the note/fret number it represents the 
duration for.  Duration letters with no fret number below them represent rests.  Multi- 
bar rests are notated in the form Wxn, where n is the number of bars to rest for.  Low 
melody durations appear below the staff 
 
Tablature Legend 
---------------- 
 h   - hammer-on 
 p   - pull-off 
 b   - bend 
 pb  - pre-bend 
 r   - bend release (if no number after the r, then release immediately) 
 /\  - slide into or out of (from/to "nowhere") 
 s   - legato slide 
 S   - shift slide 
  - natural harmonic 
{n}  - artificial harmonic 
n(n) - tapped harmonic 
 ~   - vibrato 
 tr  - trill 
 T   - tap 
 TP  - trem. picking 
 PM  - palm muting 
\n/  - tremolo bar dip; n = amount to dip 
 \n  - tremolo bar down 
 n/  - tremolo bar up 
/n\  - tremolo bar inverted dip 
 =   - hold bend; also acts as connecting device for hammers/pulls 
 <>  - volume swell (louder/softer) 
 x   - on rhythm slash represents muted slash 
 o   - on rhythm slash represents single note slash 
 
Misc Legend 
----------- 
 |  - bar 
||  - double bar 
||o - repeat start 
o|| - repeat end 
*|  - double bar (ending) 
 :  - bar (freetime) 
 $  - Segno 
 &  - Coda 
Tempo markers -  = BPM(8/16=s8/s16), where s8 = swing 8ths, s16 = swing 16ths 
 
	  

there isn't a video lesson for this song

request
Full key step upFull key step up
Half key step upHalf key step up
Half key step downHalf key step down
Full key step downFull key step down
Search
auto scroll beats size up size down change color hide chords drawings
tab show chords e-chords YouTube Clip e-chords hide all tabs e-chords go to top tab