Led Zeppelin

home > Led Zeppelin

Darlene Tab

Led Zeppelin

Difficulty: EasyEasy

tuner correct add songbook print version text version save to e-mail
chordsukulelecavacokeyboardtabbassdrumsharmonicsflute Guitar Pro
chords

Darlene

	  submitted by treyrab 
treyrab@hotmail.com 
 
Tuning 
6 5 4 3 2 1 
E A D G B E 
 
 
E|----------------|----------------|----------------|----------------| 
B|----------------|----------------|--------------3-|(3)-------------| 
G|----------------|----------------|--------------2-|(2)-------------| 
D|--------------3-|(3)-3-3---------|--------------0-|(0)-------------| 
A|--------------1-|(1)-0-1-010---3-|(3)-2-3-2320----|----------------| 
E|----------------|------------3---|------------31--|----------------| 
 
E|----------------|| 
B|(3)-------------|| 
G|(2)-------------|| 
D|(0)-------------|| 
A|----------------|| 
E|----------------|| 
 
E|----------------|----------------|----------------|----------------| 
B|----------------|----------------|----------------|----------------| 
G|----------------|--------0-------|----------------|--------0-------| 
D|5-----3-----2---|--0-2-3---3-2320|5-----3-----2---|--0-2-3---3-2320| 
A|----------------|----------------|----------------|----------------| 
E|----------------|----------------|----------------|----------------| 
                               \3/                               \3/ 
 
E|----------------|----------------|----------------|----------------| 
B|----------------|----------------|----------------|----------------| 
G|----------------|--------0-------|----------------|----------------| 
D|5-----3-----2---|--0-2-3---3-2320|5---------------|----------------| 
A|----------------|----------------|----------------|----------------| 
E|----------------|----------------|----------------|----------------| 
                               \3/ 
 
E|----------------|----------------|----------------|----------------| 
B|----------------|----------------|----------------|----------------| 
G|----------------|--------0-------|----------------|--------0-------| 
D|5-----3-----2---|--0-2-3---3-2320|5-----3-----2---|--0-2-3---3-2320| 
A|----------------|----------------|----------------|----------------| 
E|----------------|----------------|----------------|----------------| 
                               \3/                               \3/ 
 
E|----------------|----------------|----------------|----------------| 
B|----------------|----------------|----------------|----------------| 
G|----------------|--------0-------|----------------|----------------| 
D|5-----3-----2---|--0-2-3---3-2320|5---------------|----------------| 
A|----------------|----------------|----------------|----------------| 
E|----------------|----------------|----------------|----------------| 
                               \3/ 
 
E|----------------|----------------|----------------|----------------| 
B|----------------|----------------|----------------|----------------| 
G|----------------|--------0-------|----------------|--------0-------| 
D|5-----3-----2---|--0-2-3---3-2320|5-----3-----2---|--0-2-3---3-2320| 
A|----------------|----------------|----------------|----------------| 
E|----------------|----------------|----------------|----------------| 
                               \3/                               \3/ 
 
                                                     w/ Fill 1 
E|----------------|----------------|----------------|----------------| 
B|----------------|----------------|----------------|----------------| 
G|----------------|--------0-------|----------------|----------3-4-5-| 
D|5-----3-----2---|--0-2-3---3-2320|5---------------|----------3-4-5-| 
A|----------------|----------------|----------------|----------1-2-3-| 
E|----------------|----------------|----------------|----------------| 
                               \3/ 
 
E|----------------|----------------|----------------|----------------| 
B|----------------|----------------|----------------|----------------| 
G|----3-4-5-------|--3-4-5---3-4-5-|----3-4-5-------|--3-4-5---3-4-5-| 
D|----3-4-5-------|--3-4-5---3-4-5-|----3-4-5-------|--3-4-5---3-4-5-| 
A|----1-2-3-------|--1-2-3---1-2-3-|----1-2-3-------|--1-2-3---1-2-3-| 
E|----------------|----------------|----------------|----------------| 
 
                                                     w/ Fill 2 
E|----------------|----------------|----------------|----------------| 
B|----------------|--------------7-|----------------|----------------| 
G|----3-4-5-------|--3-4-5---5-6-7-|----------------|----------------| 
D|----3-4-5-------|--3-4-5---5-6-7-|----------------|--------------3-| 
A|----1-2-3-------|--1-2-3---3-4-5-|----------------|----------------| 
E|----------------|----------------|----------------|----------------| 
 
E|----------------|----------------|----------------|----------------| 
B|----------------|----------------|----------------|----------------| 
G|----------------|--------0-------|----------------|--------0-------| 
D|5-----3-----2---|--0-2-3---3-2320|5-----3-----2---|--0-2-3---3-2320| 
A|----------------|----------------|----------------|----------------| 
E|----------------|----------------|----------------|----------------| 
                               \3/                               \3/ 
 
                                                     w/ Fill 3 
E|----------------|----------------|----------------|----------------| 
B|----------------|----------------|----------------|----------------| 
G|----------------|--------0-------|----------------|----------------| 
D|5-----3-----2---|--0-2-3---3-2320|5---------------|----------------| 
A|----------------|----------------|----------------|----------------| 
E|----------------|----------------|----------------|----------------| 
                               \3/ 
 
E|----------------|----------------|----------------|----------------| 
B|----------------|----------------|----------------|----------------| 
G|----------------|--------0-------|----------------|--------0-------| 
D|5-----3-----2---|--0-2-3---3-2320|5-----3-----2---|--0-2-3---3-2320| 
A|----------------|----------------|----------------|----------------| 
E|----------------|----------------|----------------|----------------| 
                               \3/                               \3/ 
 
E|----------------|----------------|----------------|----------------| 
B|----------------|----------------|----------------|----------------| 
G|----------------|--------0-------|----------------|----------3-4-5-| 
D|5-----3-----2---|--0-2-3---3-2320|5---------------|----------3-4-5-| 
A|----------------|----------------|----------------|----------1-2-3-| 
E|----------------|----------------|----------------|----------------| 
                               \3/ 
 
E|----------------|----------------|----------------|----------------| 
B|----------------|----------------|----------------|----------------| 
G|----3-4-5-------|--3-4-5---3-4-5-|----3-4-5-------|--3-4-5---3-4-5-| 
D|----3-4-5-------|--3-4-5---3-4-5-|----3-4-5-------|--3-4-5---3-4-5-| 
A|----1-2-3-------|--1-2-3---1-2-3-|----1-2-3-------|--1-2-3---1-2-3-| 
E|----------------|----------------|----------------|----------------| 
 
                                                     w/ Fill 4 
E|----------------|----------------|----------------|----------------| 
B|----------------|--------------7-|----------------|----------------| 
G|----3-4-5-------|--3-4-5---5-6-7-|----------------|----------------| 
D|----3-4-5-------|--3-4-5---5-6-7-|----------------|--------------3-| 
A|----1-2-3-------|--1-2-3---3-4-5-|----------------|----------------| 
E|----------------|----------------|----------------|----------------| 
 
  Guitar Solo 1 
E|----------------|----------------|----------------|----------------| 
B|----------------|----------------|----------------|----------------| 
G|----------------|--------0-------|----------------|--------0-------| 
D|5-----3-----2---|--0-2-3---3-2320|5-----3-----2---|--0-2-3---3-2320| 
A|----------------|----------------|----------------|----------------| 
E|----------------|----------------|----------------|----------------| 
                               \3/                               \3/ 
 
E|----------------|----------------|----------------|----------------| 
B|----------------|----------------|----------------|----------------| 
G|----------------|--------0-------|----------------|----------------| 
D|5-----3-----2---|--0-2-3---3-2320|5---------------|----------------| 
A|----------------|----------------|----------------|----------------| 
E|----------------|----------------|----------------|----------------| 
                               \3/ 
 
E|----------------|----------------|----------------|----------------| 
B|----------------|----------------|----------------|----------------| 
G|----------------|--------0-------|----------------|--------0-------| 
D|5-----3-----2---|--0-2-3---3-2320|5-----3-----2---|--0-2-3---3-2320| 
A|----------------|----------------|----------------|----------------| 
E|----------------|----------------|----------------|----------------| 
                               \3/                               \3/ 
 
E|----------------|----------------|----------------|----------------| 
B|----------------|----------------|----------------|----------------| 
G|----------------|--------0-------|----------------|----------3-4-5-| 
D|5-----3-----2---|--0-2-3---3-2320|5---------------|----------3-4-5-| 
A|----------------|----------------|----------------|----------1-2-3-| 
E|----------------|----------------|----------------|----------------| 
                               \3/ 
 
E|----------------|----------------|----------------|----------------| 
B|----------------|----------------|----------------|----------------| 
G|----3-4-5-------|--3-4-5---3-4-5-|----3-4-5-------|--3-4-5---3-4-5-| 
D|----3-4-5-------|--3-4-5---3-4-5-|----3-4-5-------|--3-4-5---3-4-5-| 
A|----1-2-3-------|--1-2-3---1-2-3-|----1-2-3-------|--1-2-3---1-2-3-| 
E|----------------|----------------|----------------|----------------| 
 
E|----------------|----------------|----------------|----------------| 
B|----------------|--------------7-|----------------|----------------| 
G|----3-4-5-------|--3-4-5---5-6-7-|----------------|----------3-4-5-| 
D|----3-4-5-------|--3-4-5---5-6-7-|----------------|----------3-4-5-| 
A|----1-2-3-------|--1-2-3---3-4-5-|----------------|----------1-2-3-| 
E|----------------|----------------|----------------|----------------| 
 
E|----------------|----------------|----------------|----------------| 
B|----------------|----------------|----------------|----------------| 
G|----3-4-5-------|--3-4-5---3-4-5-|----3-4-5-------|--3-4-5---3-4-5-| 
D|----3-4-5-------|--3-4-5---3-4-5-|----3-4-5-------|--3-4-5---3-4-5-| 
A|----1-2-3-------|--1-2-3---1-2-3-|----1-2-3-------|--1-2-3---1-2-3-| 
E|----------------|----------------|----------------|----------------| 
 
E|----------------|----------------|----------------|----------------| 
B|----------------|--------------7-|----------------|----------------| 
G|----3-4-5-------|--3-4-5---5-6-7-|----------------|----------------| 
D|----3-4-5-------|--3-4-5---5-6-7-|----------------|--------------3-| 
A|----1-2-3-------|--1-2-3---3-4-5-|----------------|--------------1-| 
E|----------------|----------------|----------------|----------------| 
 
E|----------------|----------------|----------------|----------------| 
B|----------------|--------------3-|(3)-------------|(3)-------------| 
G|----------------|--------------2-|(2)-------------|(2)-------------| 
D|----2-3---------|--------------0-|(0)-------------|(0)-----------3-| 
A|----0-1-010---3-|(3)-2-3-2320----|----------------|--------------1-| 
E|------------3---|------------31--|----------------|----------------| 
 
E|----------------|----------------|----------------|----------------|| 
B|----------------|--------------3-|(3)-------------|(3)-------------|| 
G|----------------|--------------2-|(2)-------------|(2)-------------|| 
D|----2-3---------|--------------0-|(0)-------------|(0)-------------|| 
A|----0-1-010---3-|(3)-2-3-2320----|----------------|----------------|| 
E|------------3---|------------31--|----------------|----------------|| 
 
  12/8 time 
E|------------------------|------------------------|------------------------| 
B|----------0-------------|------------------3---4-|5---------0-------------| 
G|----------0-------2-----|------------------3---4-|5---------0-------2-----| 
D|5---------2-------3-----|------2---3-2320--------|----------2-------3-----| 
A|3-----------------------|------------------------|------------------------| 
E|------------------------|------------------------|------------------------| 
 
E|------------------------|------------------------|------------------------| 
B|------------------3---4-|5---------0-------------|------------------3---4-| 
G|------------------3---4-|5---------0-------2-----|------------------3---4-| 
D|------2---3-2320--------|----------2-------3-----|------2---3-2320--------| 
A|------------------------|------------------------|------------------------| 
E|------------------------|------------------------|------------------------| 
 
                           w/ Fill 5 
E|------------------------|------------------------| 
B|5-----------------------|------------------------| 
G|5-----------------------|------------------------| 
D|------------------------|------------------------| 
A|------------------------|------------------------| 
E|------------------------|------------------------| 
 
E|------------------------|------------------------|------------------------| 
B|----------0-------------|------------------3---4-|5---------0-------------| 
G|----------0-------2-----|------------------3---4-|5---------0-------2-----| 
D|5---------2-------3-----|------2---3-2320--------|----------2-------3-----| 
A|3-----------------------|------------------------|------------------------| 
E|------------------------|------------------------|------------------------| 
 
E|------------------------|------------------------|------------------------| 
B|------------------3---4-|5---------0-------------|------------------3---4-| 
G|------------------3---4-|5---------0-------2-----|------------------3---4-| 
D|------2---3-2320--------|----------2-------3-----|------2---3-2320--------| 
A|------------------------|------------------------|------------------------| 
E|------------------------|------------------------|------------------------| 
 
                           w/ Fill 6 
E|------------------------|------------------------| 
B|5-----------------------|------------------------| 
G|5-----------------------|------------------------| 
D|------------------------|------------------------| 
A|------------------------|------------------------| 
E|------------------------|------------------------| 
 
E|------------------------|------------------------|------------------------| 
B|----------0-------------|------------------3---4-|5---------0-------------| 
G|----------0-------2-----|------------------3---4-|5---------0-------2-----| 
D|5---------2-------3-----|------2---3-2320--------|----------2-------3-----| 
A|3-----------------------|------------------------|------------------------| 
E|------------------------|------------------------|------------------------| 
 
E|------------------------|------------------------|------------------------| 
B|------------------3---4-|5---------0-------------|------------------3---4-| 
G|------------------3---4-|5---------0-------2-----|------------------3---4-| 
D|------2---3-2320--------|----------2-------3-----|------2---3-2320--------| 
A|------------------------|------------------------|------------------------| 
E|------------------------|------------------------|------------------------| 
 
E|------------------------|------------------------| 
B|5-----------------------|------------------------| 
G|5-----------------------|------------------------| 
D|------------------------|------------------------| 
A|------------------------|------------------------| 
E|------------------------|------------------------| 
 
E|----------1-------------|------------------------|----------1-------------| 
B|----------1-------------|------------------------|----------1-------------| 
G|------------------------|------------------------|------------------------| 
D|------------------3-----|------2---3-2320--0-----|------------------3-----| 
A|3-----------------3-----|------------------------|3-----------------3-----| 
E|1-----------------------|------------------------|1-----------------------| 
 
E|------------------------|------------------------|------------------------| 
B|------------------------|----------5-------------|------------------------| 
G|------------------------|----------5-------------|------3---5-3-5-3-------| 
D|------2---3-2320--0---0-|5---------5-------5-----|------------------0-----| 
A|------------------------|3-----------------3-----|------------------------| 
E|------------------------|------------------------|------------------------| 
 
E|------------------------|------------------------|----------1-------------| 
B|----------5-------------|------------------------|----------1-------------| 
G|----------5-------------|------3---5-3-5-3-------|------------------------| 
D|5---------5-------5-----|------------------0-----|3-----------------3-----| 
A|3-----------------3-----|------------------------|3-----------------3-----| 
E|------------------------|------------------------|1-----------------------| 
 
E|------------------------|----------1-------------|------------------------| 
B|------------------------|----------1-------------|------------------------| 
G|------------------------|------------------------|----------------------0-| 
D|-----2---3-2320--0------|------------------3-----|------2---3-2320--0-----| 
A|------------------------|3-----------------3-----|------------------------| 
E|------------------------|1-----------------------|------------------------| 
 
E|------------------------|------------------------|------------------------| 
B|------------------------|------------------------|------------------------| 
G|------2-----2-----4-----|5---5-4-----------------|------------------------| 
D|------0-----0-----0-----|0-----0-----4-5-7-0---0-|5-----------------------| 
A|5-----------------------|------------------------|------------------------| 
E|------------------------|------------------------|------------------------| 
 
  w/ Fill 7 
E|------------------------| 
B|------------------------| 
G|------------------------| 
D|------------------------| 
A|------------------------| 
E|------------------------| 
 
E|----------1-------------|------------------------|----------1-------------| 
B|----------1-------------|------------------------|----------1-------------| 
G|------------------------|------------------------|------------------------| 
D|------------------3-----|------2---3-2320--0-----|------------------3-----| 
A|3-----------------3-----|------------------------|3-----------------3-----| 
E|1-----------------------|------------------------|1-----------------------| 
 
E|------------------------|------------------------|------------------------| 
B|------------------------|----------5-------------|------------------------| 
G|------------------------|----------5-------------|------3---5-3-5-3-------| 
D|------2---3-2320--0---0-|5---------5-------5-----|------------------0-----| 
A|------------------------|3-----------------3-----|------------------------| 
E|------------------------|------------------------|------------------------| 
 
E|------------------------|------------------------|----------1-------------| 
B|----------5-------------|------------------------|----------1-------------| 
G|----------5-------------|------3---5-3-5-3-------|------------------------| 
D|5---------5-------5-----|------------------0-----|3-----------------3-----| 
A|3-----------------3-----|------------------------|3-----------------3-----| 
E|------------------------|------------------------|1-----------------------| 
 
E|------------------------|----------1-------------|------------------------| 
B|------------------------|----------1-------------|------------------------| 
G|------------------------|------------------------|----------------------0-| 
D|-----2---3-2320--0------|------------------3-----|------2---3-2320--0-----| 
A|------------------------|3-----------------3-----|------------------------| 
E|------------------------|1-----------------------|------------------------| 
 
E|------------------------|------------------------|------------------------| 
B|------------------------|------------------------|------------------------| 
G|------------5---2-4---5-|----4-5-4-2-5-4-2-5-4-2-|------------------------| 
D|------0---0-------------|------------------------|------------------------| 
A|5-----------------------|------------------------|------------------------| 
E|------------------------|------------------------|3-----------------------| 
 
E|------------------------| 
B|------------------------| 
G|------------------------| 
D|------------------------| 
A|------------------------| 
E|------------------------| 
 
  Guitar Solo 2 
E|----------1-------------|------------------------|----------1-------------| 
B|----------1-------------|------------------------|----------1-------------| 
G|------------------------|------------------------|------------------------| 
D|------------------3-----|------2---3-2320--0-----|------------------3-----| 
A|3-----------------3-----|------------------------|3-----------------3-----| 
E|1-----------------------|------------------------|1-----------------------| 
 
E|------------------------|------------------------|------------------------| 
B|------------------------|----------5-------------|------------------------| 
G|------------------------|----------5-------------|------3---5-3-5-3-------| 
D|------2---3-2320--0---0-|5---------5-------5-----|------------------0-----| 
A|------------------------|3-----------------3-----|------------------------| 
E|------------------------|------------------------|------------------------| 
 
E|------------------------|------------------------|----------1-------------| 
B|----------5-------------|------------------------|----------1-------------| 
G|----------5-------------|------3---5-3-5-3-------|------------------------| 
D|5---------5-------5-----|------------------0-----|3-----------------3-----| 
A|3-----------------3-----|------------------------|3-----------------3-----| 
E|------------------------|------------------------|1-----------------------| 
 
E|------------------------|----------1-------------|------------------------| 
B|------------------------|----------1-------------|------------------------| 
G|------------------------|------------------------|----------------------0-| 
D|-----2---3-2320--0------|------------------3-----|------2---3-2320--0-----| 
A|------------------------|3-----------------3-----|------------------------| 
E|------------------------|1-----------------------|------------------------| 
 
E|------------------------|------------------------|------------------------| 
B|------------------------|------------------------|------------------------| 
G|------------------------|------------------------|------------------------| 
D|------0-----------0-----|3-0-0-0-----3-0-0-0-----|------------------------| 
A|5-----------5-----------|------------------------|------------------------| 
E|------------------------|------------------------|3-----------------------| 
 
E|------------------------| 
B|------------------------| 
G|------------------------| 
D|------------------------| 
A|------------------------| 
E|------------------------| 
 
E|----------1-------------|------------------------|----------1-------------| 
B|----------1-------------|------------------------|----------1-------------| 
G|------------------------|------------------------|------------------------| 
D|------------------3-----|------2---3-2320--0-----|------------------3-----| 
A|3-----------------3-----|------------------------|3-----------------3-----| 
E|1-----------------------|------------------------|1-----------------------| 
 
E|------------------------|------------------------|------------------------| 
B|------------------------|----------5-------------|------------------------| 
G|------------------------|----------5-------------|------3---5-3-5-3-------| 
D|------2---3-2320--0---0-|5---------5-------5-----|------------------0-----| 
A|------------------------|3-----------------3-----|------------------------| 
E|------------------------|------------------------|------------------------| 
 
E|------------------------|------------------------|----------1-------------| 
B|----------5-------------|------------------------|----------1-------------| 
G|----------5-------------|------3---5-3-5-3-------|------------------------| 
D|5---------5-------5-----|------------------0-----|3-----------------3-----| 
A|3-----------------3-----|------------------------|3-----------------3-----| 
E|------------------------|------------------------|1-----------------------| 
 
E|------------------------|----------1-------------|------------------------| 
B|------------------------|----------1-------------|------------------------| 
G|------------------------|------------------------|----------------------0-| 
D|-----2---3-2320--0------|------------------3-----|------2---3-2320--0-----| 
A|------------------------|3-----------------3-----|------------------------| 
E|------------------------|1-----------------------|------------------------| 
 
E|------------------------|------------------------|------------------------| 
B|------------------------|------------------------|------------------------| 
G|------------------------|------------------------|------------------------| 
D|0---0-4---0-4---0-5---0-|4---0-3---0-5---0-4---0-|5-----------------------| 
A|------------------------|------------------------|------------------------| 
E|------------------------|------------------------|------------------------| 
 
E|------------------------| 
B|------------------------| 
G|------------------------| 
D|------------------------| 
A|------------------------| 
E|------------------------| 
 
E|----------1-------------|------------------------|----------1-------------| 
B|----------1-------------|------------------------|----------1-------------| 
G|------------------------|------------------------|------------------------| 
D|------------------3-----|------2---3-2320--0-----|------------------3-----| 
A|3-----------------3-----|------------------------|3-----------------3-----| 
E|1-----------------------|------------------------|1-----------------------| 
 
E|------------------------|------------------------|------------------------| 
B|------------------------|----------5-------------|------------------------| 
G|------------------------|----------5-------------|------3---5-3-5-3-------| 
D|------2---3-2320--0---0-|5---------5-------5-----|------------------0-----| 
A|------------------------|3-----------------3-----|------------------------| 
E|------------------------|------------------------|------------------------| 
 
E|------------------------|------------------------|----------1-------------| 
B|----------5-------------|------------------------|----------1-------------| 
G|----------5-------------|------3---5-3-5-3-------|------------------------| 
D|5---------5-------5-----|------------------0-----|3-----------------3-----| 
A|3-----------------3-----|------------------------|3-----------------3-----| 
E|------------------------|------------------------|1-----------------------| 
 
E|------------------------|----------1-------------|------------------------| 
B|------------------------|----------1-------------|------------------------| 
G|------------------------|------------------------|----------------------0-| 
D|-----2---3-2320--0------|------------------3-----|------2---3-2320--0-----| 
A|------------------------|3-----------------3-----|------------------------| 
E|------------------------|1-----------------------|------------------------| 
 
E|------------------------|------------------------|------------------------| 
B|------------------------|------------------------|------------------------| 
G|----------------------0-|------------------------|------------------------| 
D|0-----0---0-4---0-0-----|0-----3-0-0-5-0-0-3-0-0-|------------------------| 
A|------------------------|------------------------|------------------------| 
E|------------------------|------------------------|3-----------------------| 
 
E|------------------------| 
B|------------------------| 
G|------------------------| 
D|------------------------| 
A|------------------------| 
E|------------------------| 
 
 
  Guitar Fill 1                   Guitar Fill 2 
E|----------------|             E|----------------|--1---1---------| 
B|------6---------|             B|--------------1-|3---3---3-------| 
G|--5-7---753-3---|             G|----------------|-----------0----| 
D|--------------5-|             D|----------------|----------------| 
A|----------------|             A|----------------|----------------| 
E|----------------|             E|----------------|----------------| 
 
  Guitar Fill 3                   Guitar Fill 4 
E|-------1--------|             E|----------------|--3-13131-------| 
B|--1-3----1-31---|             B|--------------1-|3---3-----3-1---| 
G|--------------3-|             G|----------------|--------------3-| 
D|----------------|             D|----------------|----------------| 
A|----------------|             A|----------------|----------------| 
E|----------------|             E|----------------|----------------| 
           \3/\3/ 
 
  Guitar Fill 5                           Guitar Fill 6 
E|----3-----3-------------|             E|----11------11----11----| 
B|----6-----6-----4-------|             B|----13------11----8-----| 
G|------------------------|             G|------------------------| 
D|------------------------|             D|------------------------| 
A|------------------------|             A|------------------------| 
E|------------------------|             E|------------------------| 
 
  Guitar Fill 7 
E|----3-------------------| 
B|----6-------------------| 
G|------------5-3-0-0-----| 
D|--------------------3-0-| 
A|------------------------| 
E|------------------------| 
 
  Guitar Solo 1 
E|----------------|----------------|----------------|----------------| 
B|--------------5-|--3---------8-6-|--108---108---8-|----8-6---8-1010| 
G|30--0---0-0-----|------8-6-------|----------------|----------------| 
D|--3---3---3-5---|----7------7----|9-----9-----9---|--7-----7-9-----| 
A|----------------|----------------|----------------|----------------| 
E|----------------|----------------|----------------|----------------| 
 
E|----------------|--3-------------|----------------|----------------| 
B|8-----368-6---1-|3-----3-1-------|---------1--1---|4-3-8--68-6-----| 
G|----------------|----------3-030-|0---3-0--0--0---|----------------| 
D|----------------|---------------3|--30----3--3--3-|5---------------| 
A|----------------|----------------|----------------|----------------| 
E|----------------|----------------|----------------|----------------| 
                         \3/ \3/        \-3-/ 
 
E|------1513------|--------------15|----15----15----|18----18------18| 
B|--1415--151513--|12--12------15--|--15----15--1820|--1820--20------| 
G|--------------15|--15--15--19----|19----19--------|----------------| 
D|----------------|----------------|----------------|----------------| 
A|----------------|----------------|----------------|----------------| 
E|----------------|----------------|----------------|----------------| 
              \-3/ 
 
E|20--1815--------|----------------|-1113-13-1-33-31|------------------| 
B|--------1815----|----------15----|-3--3--1-1------|------------------| 
G|------------1815|151715171515----|----------------|320-0---0---------| 
D|----------------|------------17--|----------------|---3--3-----------| 
A|----------------|----------------|----------------|------------------| 
E|----------------|----------------|----------------|------------------| 
                       \--3-/           \3/\3/  \3---------------------| 
 
E|------------------------|------------------------|------------------------| 
B|------------------------|------------------------|------------------------| 
G|------------10--10----10|14--1212--10----10----10|13--1013--10121213131313| 
D|--------1012------12----|------------------------|------------------------| 
A|----8-12----------------|------------------------|------------------------| 
E|------------------------|------------------------|------------------------| 
 
E|------------------------|----8-5-----5-----------|----8-------------------| 
B|13121012--10----1012--10|----------8-----8-6-----|----------------------1-| 
G|------------------------|----------------------8-|9-----------------------| 
D|------------------------|------------------------|------------------------| 
A|------------------------|------------------------|------------------------| 
E|------------------------|------------------------|------------------------| 
 
E|--5-5-8---------------8-|5-----------------------|------------------------| 
B|5-------------8---------|--8-5-8-5---5-----------|------------------------| 
G|----------7-9---9-------|----------7---7-5-7-5---|5---------5-----5-----8-| 
D|------------------------|----------------------7-|------7-----7-----------| 
A|------------------------|------------------------|------------------------| 
E|------------------------|------------------------|------------------------| 
 
E|------------------------|------------------------|------------------------| 
B|----8-7---8-------------|------------------------|------------------------| 
G|10----------7---5-----5-|----5-----5-2-----2---5-|2-----2---2-------------| 
D|------------------7-----|------7---------5-------|----3-------------------| 
A|------------------------|------------------------|------------------------| 
E|------------------------|------------------------|------------------------| 
 
E|------------------------|------------------------|------------------------| 
B|------------------------|------------------------|------------------------| 
G|------2---------2-------|2---2-----2-------2---2-|-0----------------------| 
D|----------4-----------0-|------0-----0-----0-----|------------------------| 
A|------------------------|------------------0-----|------------------------| 
E|------------------------|------------------------|------------------------| 
 
E|------------------------|----------10------------|------------------------| 
B|------------------------|--------10--1310--1310--|10----------------------| 
G|------------------------|10--1014--------------12|--1210--1210--10----10--| 
D|--------------------1012|--12--------------------|------0-----12----12----| 
A|----------------8-12----|------------------------|------------------------| 
E|------------------------|------------------------|------------------------| 
 
E|-----------13----1415-16|17-17----17-----15------|------------------------| 
B|-----131517-------------|------------------13----|13--13----1315----13----| 
G|--14--------------------|----------------------14|------14----------------| 
D|------------------------|------------------------|------------------------| 
A|------------------------|------------------------|------------------------| 
E|------------------------|------------------------|------------------------| 
 
E|----------------1517--15|------------------------|----131515--------------| 
B|------15--13------------|----1315----13--------13|17--------17--1513---14-| 
G|----14------------------|------------------14----|------------------------| 
D|------------------------|------------------------|------------------------| 
A|------------------------|------------------------|------------------------| 
E|------------------------|------------------------|------------------------| 
 
E|------------------------|10--------------10------|----------------10------| 
B|15----13----------13----|----1313----13------13--|13------------------1313| 
G|------------------14----|------14--1212----12--14|12--1012--1012--14----14| 
D|------------------------|------------------------|------------------------| 
A|------------------------|------------------------|------------------------| 
E|------------------------|------------------------|------------------------| 
 
E|------------------------|------------------------|------8---10------------| 
B|------------------------|----8-9---10------------|----12------12--108-----| 
G|14121012--1012----------|12----------12--108-----|------------------------| 
D|------------------------|----------------------9-|------------------------| 
A|------------------------|------------------------|------------------------| 
E|------------------------|------------------------|------------------------| 
 
E|------------------------|------------------------|------------------------| 
B|----------------------8-|101010------10101010108-|6-----------------------| 
G|------------------------|------------------------|------------------------| 
D|------------------------|------------------------|------------------------| 
A|------------------------|------------------------|------------------------| 
E|------------------------|------------------------|------------------------| 
 
E|--5-5-------------------|------------------------|------------------------| 
B|--------886-----------6-|4-----------6---6-6-----|--------------------1213| 
G|------------------7-----|----5-3---2-------------|------------------------| 
D|------------------------|------------------------|------------------------| 
A|------------------------|------------------------|------------------------| 
E|------------------------|------------------------|------------------------| 
 
E|------------------------|------------------------|----------5-------------| 
B|13----------------------|----101313--------------|------------8---5-------| 
G|------------------5-----|--10----------------5-7-|9---9---------------9---| 
D|--------------5-7-----10|12--------------5-7-----|------------------------| 
A|----------3-7-----------|------------3-6---------|------------------------| 
E|------------------------|------------------------|------------------------| 
 
E|------------------------|------------------------|------------------------| 
B|------------------------|------------------------|------------------1---1-| 
G|7---5-------5-------5---|2-----------------------|----------------2-------| 
D|--------7-------7-------|----3-----------7-------|----------2-3-----------| 
A|------------------------|------------------------|------------------------| 
E|------------------------|------------------------|------------------------| 
 
E|----0-------------------|------------------------|------------------------| 
B|----1-----------1-3---1-|----------13------------|------------------------| 
G|------------------------|------------------------|------------5---5-------| 
D|------------------------|------------------------|----------57------------| 
A|------------------------|------------------------|5---5-9---------------5-| 
E|------------------------|------------------------|------------------------| 
 
E|------------------------|------------------------|6---7-8---------108-----| 
B|------------------------|----10------8---------10|----------12----------9-| 
G|------7---7-----7-7-----|------------------------|------------------------| 
D|--9---------------------|------------------------|------------------------| 
A|9-----------------------|------------------------|------------------------| 
E|------------------------|------------------------|------------------------| 

	  

there isn't a video lesson for this song

request
Full key step upFull key step up
Half key step upHalf key step up
Half key step downHalf key step down
Full key step downFull key step down
Search
auto scroll beats size up size down change color hide chords drawings
tab show chords e-chords YouTube Clip e-chords hide all tabs e-chords go to top tab