Led Zeppelin

home > Led Zeppelin

Celebration Day Tab

Led Zeppelin

Difficulty: EasyEasy

by miss-tyler

tuner correct add songbook print version text version save to e-mail
chordsukulelecavacokeyboardtabbassdrumsharmonicsflute Guitar Pro
chords

Celebration Day

	  CELEBRATION DAY 
 
afinação padrão 
 
6 5 4 3 2 1  
E A D G B E  
 
{Riff 1} 
                   (play this rapidly) 
E| ----------------9--9--9--9--9--9--9--|-------------------------------- |  
B| ----------------8--8--8--8--8--8--8--|-------------------------------- | 
G|o-----------2----9--9--9--9--9--9--9--|--------------------------------o| 
D|o-------------------------------------|--5-----------------------------o| 
A| --0--3--0----------------------------|-----3--0----------------------- | 
E| -------------------------------------|-------------------------------- | 
 
{Riff 2} 
E|--0-0-0-0-0-0-0--3-3-3-3-3-3-3--1-1-1-1-1-1-1--1-1-1-1-1-1-1---------------| 
B|--1-1-1-1-1-1-1--3-3-3-3-3-3-3--3-3-3-3-3-3-3--1-1-1-1-1-1-1---------------| 
G|--0-0-0-0-0-0-0--0-0-0-0-0-0-0--3-3-3-3-3-3-3--2-2-2-2-2-2-2---------------| 
D|--2-2-2-2-2-2-2--0-0-0-0-0-0-0--3-3-3-3-3-3-3--3-3-3-3-3-3-3---------------| 
A|--3-3-3-3-3-3-3--2-2-2-2-2-2-2--1-1-1-1-1-1-1--3-3-3-3-3-3-3---------------| 
E|-----------------3-3-3-3-3-3-3-----------------1-1-1-1-1-1-1---------------| 
 
E|--0-0-0-0-0-0-0--3-3-3-3-3-3-3--1-1-1-1-1-1-1---1-1-1-1-1------------------| 
B|--1-1-1-1-1-1-1--3-3-3-3-3-3-3--3-3-3-3-3-3-3---1-1-1-1-1------------------| 
G|--0-0-0-0-0-0-0--0-0-0-0-0-0-0--3-3-3-3-3-3-3---2-2-2-2-2-1-1-1-1-1--------| 
D|--2-2-2-2-2-2-2--0-0-0-0-0-0-0--3-3-3-3-3-3-3---3-3-3-3-3-2-2-2-2-2--------| 
A|--3-3-3-3-3-3-3--2-2-2-2-2-2-2--1-1-1-1-1-1-1---3-3-3-3-3-2-2-2-2-2--------| 
E|-----------------3-3-3-3-3-3-3------------------1-1-1-1-1------------------| 
 
Song Progression: 
 
{Riff 1} x2 
 
With {Riff 1}: 
 
Her face is cracked from smiling, 
all the fears that she's been hiding, 
and it seems that pretty soon 
evr'ybody's gonna know. 
 
And her voice is sore from shouting, 
cheering winners who are losing, 
and she wonders if their days are few 
and soon they'll have to go. 
 
{Riff 1} once more, then 
 
With {Riff 2}: (chords shown here for reference) 
 
C            G 
My, my, my, I'm so happy, 
Bb                F 
I'm gonna join the band. 
 C                     G 
We are gonna dance and sing in celebration, 
 Bb                   F  E 
we are in the promised land. 
 
With {Riff 1}: 
 
She hears them talk of new ways 
to protect the home she lives in, 
Then she wonders what it's all about 
when they break down the door. 
Her name is Brown or White or Black; 
you know her very well. 
You hear her cries of mercy 
as the winners toll the bell. 
 
With {Riff 2}: 
 
My, my, my, I'm so happy, 
I'm gonna join the band. 
We are gonna sing and dance in celebration, 
we are in the promised land. 
 
{Solo}: 
 
 
E|------------------------------------|-----------------------------------| 
B|-15b17--15b17--15b17r15p13-15b17-15-|-(15)-----------13-15p13---15p13---| 
G|------------------------------------|-----12---12-14----------14-----14-| 
D|------------------------------------|-----------------------------------| 
A|------------------------------------|-----------------------------------| 
E|------------------------------------|-----------------------------------| 
 
E|------------15------------|-------------8p5----------| 
B|-13---15-13----15b17-15b17|-(17)-15b17-----8p5-8p5---| 
G|--------------------------|-----------------------7p5| 
D|--------------------------|--------------------------| 
A|--------------------------|--------------------------| 
E|--------------------------|--------------------------| 
 
E|----------------------|------------------------|----------------8| 
B|----------------------|------------------------|-----------------| 
G|-7b9-7b9-7b9r7p5-7b9r7|-(17)------5-7p5-5-7p5--|-5--7-5--5--8h9--| 
D|----------------------|-----5--5h7-----7-----7-|-----------------| 
A|----------------------|------------------------|-----------------| 
E|----------------------|------------------------|-----------------| 
 
E|-------13----13--------12----12-| 
B|--------------------------------| 
G|-12/14----14-----12/13----13----| 
D|--------------------------------| 
A|--------------------------------| 
E|--------------------------------| 
 
With {Riff 1}: 
 
There is a train that leaves the station 
heading for your destination, 
But the price you pay to nowhere 
has increased a dollar more. Yes, it has! 
And if you walk you're gonna get there 
although it takes a little longer, 
And when you see it in the distance 
you will wring your hands and moan. 
 
Repeat {Riff 1} until fade out 
 
 

	  

there isn't a video lesson for this song

request
Full key step upFull key step up
Half key step upHalf key step up
Half key step downHalf key step down
Full key step downFull key step down
Search
auto scroll beats size up size down change color hide chords drawings
tab show chords e-chords YouTube Clip e-chords hide all tabs e-chords go to top tab