Led Zeppelin

home > Led Zeppelin

Baby Come On Home Tab

Led Zeppelin

Difficulty: EasyEasy

tuner correct add songbook print version text version save to e-mail
chordsukulelecavacokeyboardtabbassdrumsharmonicsflute Guitar Pro
chords

Baby Come On Home

	  Transcribed by Victor Ochoa 
Standard Tuning 
 
 
E|------------|------------|------------|------------| 
B|------------|------------|------------|------1-----| 
G|------------|------0-----|------0---3-|----0---0---| 
D|------------|----1---1---|----1---1-3-|--2-------2-| 
A|------------|--3-------3-|--3-------5-|3-----------| 
E|------------|4-----------|4-----------|------------| 
 
E|------------|------------|------------|------------| 
B|------------|--------1---|--------1---|------------| 
G|--454-------|------0-----|------0---0-|------0-----| 
D|-0---5--020-|----2-------|----2-------|--------0---| 
A|2-----2----2|--3---------|--3---------|----2-----2-| 
E|------------|------------|------------|------------| 
 
E|------------|------------|------------|------------| 
B|------------|------------|------------|------------| 
G|------0-----|------------|------------|------0-----| 
D|----0---0---|------3-----|------3-----|----1---1---| 
A|--2---------|--0-3-------|--0-3---3---|--3-------3-| 
E|3---------3-|1-----------|1---------1-|4-----------| 
 
E|------------|------------|------------|------------| 
B|------------|------1-----|------1-----|------------| 
G|------1-----|----0---0---|----0---0---|------0-----| 
D|----1-------|--2-------2-|--2-------2-|----0---0---| 
A|--3-----3-3-|3-----------|3-----------|--2-------2-| 
E|3-------3-3-|------------|------------|3-----------| 
 
E|------------|------------|------------|------------| 
B|------------|------------|------------|------------| 
G|------0-----|------------|------------|------0-----| 
D|----0---0---|------3-----|------3-----|----1---1---| 
A|--2-------2-|--0-3---3-0-|0-0-3---0-2-|--3-------3-| 
E|3-----------|1-----------|1-----------|4-----------| 
 
E|------------|------------|------------|------------| 
B|------------|------------|------------|------------| 
G|------------|0-----0-----|0-----0-----|------------| 
D|----1-0-----|2-----2-----|2-----2-----|------------| 
A|3-3-------1-|3-----3-----|3-----3-----|--0-3-------| 
E|4-----------|------------|------------|1-----------| 
               Babe  Babe   Babe  Babe   come on home 
 
E|------------|------------|------------|------------| 
B|------------|------------|------1-----|------------| 
G|------0-----|------------|----0---0---|--454-0-----| 
D|----0---0---|------------|--2-------2-|-0---0-020--| 
A|--2-------2-|-3----------|3-----------|2---------2-| 
E|3-----------|15----------|------------|-----------3| 
 
E|------------|------------|------------|------------| 
B|------1-----|------1-----|------------|------------| 
G|----0---0---|----0---0---|------0-----|------0-----| 
D|--2-------2-|--2-------2-|----0---0---|----0---0---| 
A|3-----------|------------|--2-------2-|--2-------2-| 
E|------------|------------|3-----------|3-----------| 
 
E|------------|------------|------------|------------| 
B|------------|------------|------------|------------| 
G|------------|------------|------0-----|------0-----| 
D|------3-----|------3-----|----1---1---|----1---1-0-| 
A|--0-3---3---|--0-3---3---|--3-------3-|--3---------| 
E|1---------1-|1---------1-|4-----------|4-----------| 
 
E|------------|------------|------------|------------| 
B|------1-----|------------|------------|------------| 
G|----0---0---|------0-----|------0-----|------------| 
D|--2-------2-|----0---0---|----0---0---|------3-----| 
A|3-----------|--2-------2-|--2---------|--0-3---3-0-| 
E|------------|3-----------|3---------3-|1-----------| 
 
E|------------|------------|------------|------------| 
B|------------|------------|------------|------------| 
G|------------|------0-----|------0-----|0-----0-----| 
D|------3-----|----1---1---|----1---1-01|2-----2-----| 
A|--0-3---3---|--3-------3-|--3---------|3-----3-----| 
E|1---------1-|4-----------|4-----------|------------| 
                                         Babe  Babe 
 
E|------------|------------|------------|------------| 
B|------------|------------|------------|------------| 
G|0-----0-----|2-----------|------------|------0-----| 
D|2-----2-----|3-----------|------------|----0---0---| 
A|3-----3-----|3-----------|------------|--2-------2-| 
E|------------|1-----------|------------|3-----------| 
  Please come on home... 
 
E|------------|------------|------------|------------| 
B|------------|------1-----|------0-----|------------| 
G|------------|----0---0---|----0---0---|0-----0-----| 
D|------------|--2-------2-|--0---------|2-----2-----| 
A|--0---3-0---|3-----------|2---------2-|3-----3-----| 
E|1-----------|------------|------------|------------| 
                                         Babe  Babe 
 
E|------------|------------|------------|------------| 
B|------------|------------|------------|------------| 
G|0-----0-----|2-----------|------------|------0-----| 
D|2-----2-----|3-----------|------------|----0---0---| 
A|3-----3-----|3-----------|------------|--2-------2-| 
E|------------|1-----------|------------|3-----------| 
  Come on home.... 
E|------------|------------|------------|------------| 
B|------------|------1-----|------------|------1-----| 
G|------------|----0---0---|----0---0---|----0---0---| 
D|------------|--2-------2-|--0-------0-|--2-------2-| 
A|0-3---------|3-----------|2-----2-----|3-----------| 
E|------------|------------|------------|------------| 
 
E|------------|------------|------------|------------| 
B|------1-----|------------|------------|------------| 
G|----0---0---|------0-----|------0-----|------------| 
D|--2-------2-|----0---0---|----0-------|------3-----| 
A|3-----------|--2-------2-|--2-----3-2-|--0-3---3-0-| 
E|------------|3-----------|------------|1-----------| 
 
E|------------|------------|------------|------------| 
B|------------|------------|------1-----|------1-----| 
G|------------|------0-----|----0---0---|----0---0---| 
D|------3-----|----1---1---|--2-------2-|--2-------2-| 
A|--0-3---3-0-|--3-------3-|3-----------|3-----------| 
E|1-----------|4-----------|------------|------------| 
 
E|------------|------------|------------|------------| 
B|------------|------------|------------|------------| 
G|------0-----|------0-----|------------|------------| 
D|----0---0---|----0---0---|------3-----|------3-----| 
A|--2-------2-|--2-------2-|--0-3---3-0-|--0-3---3-0-| 
E|3-----------|------------|1-----------|1-----------| 
 
E|------------|------------|------------|------------| 
B|------------|------------|------------|------------| 
G|------0-----|------0-----|0-----0-----|0-----0-----| 
D|----1---1---|----1---1-3-|2-----2-----|2-----2-----| 
A|--3-------3-|--3---------|3-----3-----|3-----3-----| 
E|4-----------|4-----------|------------|------------| 
 
E|------------|------------|------------|------------| 
B|------------|------------|------------|------------| 
G|2-----------|------------|------0-----|------------| 
D|3-----------|------3-----|----0---0---|------3-----| 
A|3-----3-0---|--0-3---3-0-|--2-------2-|--0-3---3-0-| 
E|1---------1-|1-----------|3-----------|1-----------| 
 
E|------------|------------|------------|------------| 
B|------1-----|------------|------------|------------| 
G|----0---0---|------0-----|0-----0-----|0-----0-----| 
D|--2-------2-|----0---0---|2-----2-----|2-----2-----| 
A|3-----------|--2-------2-|3-----3-----|3-----3-----| 
E|------------|3-----------|------------|------------| 
 
E|------------|------------|------------|------------| 
B|------------|------------|------------|------------| 
G|------------|------------|------0-----|------------| 
D|3-----3-----|------3-----|----0---0---|------3-----| 
A|----0---0---|--0-3---3-0-|--2-------2-|--0-3---3-0-| 
E|1-----------|1-----------|3-----------|1-----------| 
 
E|------------|------------|------------|------------| 
B|------------|------0-----|------------|------------| 
G|--------0---|----0---0---|0-----0-----|0-----0-----| 
D|--2-------2-|--0-------0-|2-----2-----|2-----2-----| 
A|3-----------|2-----------|3-----3-----|3-----3-----| 
E|------------|------------|------------|------------| 
 
E|------------|------------|------------|------------| 
B|------------|------------|------0-----|------------| 
G|------------|------2-----|----0---0---|----2-------| 
D|3-----3-----|----3---3---|---0------0-|--3---3---3-| 
A|----0---3-0-|0-3-------3-|02----------|0-------3---| 
E|1-----------|------------|------------|------------| 
 
 
 
  Second guitar part that comes in at approx. 02:50 
E|------------|------------|------------|------------| 
B|--3535353535|5-----------|---------3--|------------| 
G|------------|------------|----------54|5-----------| 
D|------------|------------|------------|------------| 
A|------------|------------|------------|------------| 
E|------------|------------|------------|------------| 
 
E|------------|--------4-2-|------------|------------| 
B|------------|-------5---4|-5----------|------------| 
G|------------|------6-----|6-----6-6-67|5-----------| 
D|------------|------------|-------6-6--|------------| 
A|------------|------------|------------|------------| 
E|------------|------------|------------|------------| 
 
E|------------|------------|------------|------------| 
B|---------353|5-3---------|--------3-5-|------------| 
G|------------|------------|--------44-4|5-----------| 
D|------------|------------|--575-57----|------------| 
A|------------|------------|57---7------|------------| 
E|------------|------------|------------|------------| 
 
E|------------|------------|----4543----|------------| 
B|------343434|34---34343-4|34------6---|------35----| 
G|------------|------------|--5------75-|5-----------| 
D|------------|------------|-----------7|------------| 
A|------------|------------|------------|------------| 
E|------------|------------|------------|------------| 
 
E|------------|-----------0|------------|3-----------| 
B|35----35----|--3---1-----|------------|------------| 
G|------------|----2-----2-|-----------2|4-----------| 
D|------------|------------|----------2-|------------| 
A|------------|------------|------------|------------| 
E|------------|------------|------------|------------| 
 
E|------------|------------|------------------------| 
B|6-----------|------------|------------------------| 
G|------------|------------|-----------------------0| 
D|------------|------------|----------------1332-23-| 
A|------------|------------|------------3--3----3---| 
E|------------|------------|------134-34--5---------| 
 
E|------------|------------|------------|------------| 
B|------------|------------|------------|------------| 
G|45----35----|35----35----|3-1---------|------------| 
D|------------|------------|------------|------------| 
A|------------|------------|------------|------------| 
E|------------|------------|------------|------------| 
 
E|------------|------------|------------|-------------------358--| 
B|------------|------------|------------|------------1-1-1-35--10| 
G|------------|------------|------------|------0---2--2-2--------| 
D|------------|------------|------------|-----2------------------| 
A|------------|------------|------------|3-335-------------------| 
E|------------|------------|------------|------------------------| 
 
E|-5----------|------------|------------|------------| 
B|------------|------------|------------|------------| 
G|5-----------|------------|------------|------------| 
D|------------|------------|------------|------------| 
A|------------|------------|------------|------------| 
E|------------|------------|------------|------------| 
 
E|------------|------------|------------| 
B|------------|------------|------------| 
G|------------|------------|------------| 
D|------------|------------|------------| 
A|------------|------------|------------| 
E|------------|------------|------------| 

	  

there isn't a video lesson for this song

request
Search
auto scroll beats size up size down change color hide chords drawings
tab show chords e-chords YouTube Clip e-chords hide all tabs e-chords go to top tab