Kamikaze

home > Kamikaze > chords

seksi seksi Tab

Kamikaze

Difficulty: ExpertExpert

by europeu

tuner correct add songbook print version text version rtf version e-mail
chordsukulelecavacokeyboardtabbassdrumsharmonicsflute Guitar Pro
chords

seksi seksi

	  e-----------          -------------| 
B----------- Timingan -------------| 
G----------- nyo na   -------------| 
D----------- lang!!   --5555-6666--| 
A-5-5--6-7--          --3333-4444--| 
E-3-3--4-5--          -------------| 
 
Intro prt 2: 
e----------------------------       -------------------| 
B----------------------------       -------------------| 
G---------------------------- 3x    -------------------| 
D--5-5-6-7-8--7-6-5--4------- Then  -55-77--5555-6666--| 
A--5-5-6-7-8--5-4-3--2--5-5--       -55-77--3333-4444--| 
E--3-3-4-5-6------------3-3--       -33-55-------------| 
 
Verse: 
e---------------------------| 
B---------------------------| 
G---------------------------| 
D---------------------------| 
A--5-5-6-7---11-19--7-6-----| 
E--3-3-4-5---9--8---5-4-----| 
             .  .   . .       Repeat 
e---------------------------| This 
B---------------------------| 2x 
G-----------9-9-9-9---------| 
D---------------------------| 
A-5-5-6-7-------------------| 
E-3-3-4-5-------------------| 
            . . . . 
 
e---------------------------------| 
B---------------------------------| 
G---------------------------------| 
D---------------------5555-6666---| 
A-5-5-6-7---5-5-6-7---3333-4444---| 
E-3-3-4-5---3-3-4-5---------------| 
 
Chorus:Play the Intro prt 2   
Repeat Verse: 
Repeat Chorus: 
 
Bridge prt 1: 
e-------------------|      
B-------------------|     
G-------------------|     
D--8-6-5-6-6-5-6-8--|      
A--8-6-5-6-6-5-6-8--|      
E--6-4-3-4-4-3-4-6--|      
    
 
e---------------------------------| 
B---------------------------------| 
G---------------------------------| 
D--6666-6666-5555-6666--7777--8---| 
A--8888-6666-5555-6666--7777--8~--| 
E--6666-4444-3333-4444--5555--6~--| 
 
 
Bridge prt 2:Gtr Adlib 
             Sorry:,c di q na knaya ung gtr adlib!nde  
             naman kc aq mgalng eh!!hehe..:p 
 
Gtr 1:Play this also during Gtr Adlib     Gtr 2 Enters: 
e------------------------------------     --------------| 
B------------------------------------     --------------|   
G-0-2-3-0-3-0-3-0-3-0-3-2-3----------     --------------| 
D------------------------------------     --------------|   
A------------------------------------     --2~--22-0-22-| 
E------------------------------------     --0~--00-0-00-| 
                                                ..   ..                  
 
Repeat Chorus: 
Then Repeat the Bridge prt 1: 
 
The Last Chord of the Song: 
e--------------| 
B--------------| 
G--------------| 
D--7~----------| 
A--7~----------| 
E--6~----------| 
 
  
 
  
 

	  

Request the video "seksi seksi"  -  Send "seksi seksi" Ringtone to your Cell

there isn't a video lesson for this song

request
e-chords
Search
auto scroll beats size up size down change color hide chords drawings
tab show chords e-chords YouTube Clip e-chords hide all tabs e-chords go to top tab