José Feliciano

home > José Felic... > chords

Chico And The Man Tab

José Feliciano

Difficulty: EasyEasy

by robepoiel

tuner correct add songbook print version text version rtf version e-mail
chordsukulelecavacokeyboardtabbassdrumsharmonicsflute Guitar Pro
chords

Chico And The Man

	  p=pulloff 
h=hammeron 
m=palm mute 
h=harmonic note 

(intro) 
|---------------------------------------------------------------------- | 
|---------------------------------------------------------------------- | 
|---------------------------------------------------------------------- | 
|---------------------------------------------------------------------- | 
|-h12-m------------h12-m-------------h12-m------------h12-m------------ | 
|-------h12-h12-m---------h12-h12-m--------h12-h12-m---------h12-h12-m- | 

| ---------------------------------------------------- | 
| -------2h3p2-------2-------------2h3p2-------2------ | 
| ---2h4-------4--2--2--4-4----2h4-------4--2--2--4-4- | 
| ---------------------------------------------------- | 
| -0-------------------------0------------------------ | 

| ---------------------------------------------------- | 
| -------2h3p2-------2-------------2h3p2-------2------ | 
| ---2h4-------4--2--2--4-4----2h4-------4--2--2--4-4- | 
| ---------------------------------------------------- | 
| -0-------------------------0------------------------ | 
	  

Request the video "Chico And The Man"  -  Send "Chico And The Man" Ringtone to your Cell

there isn't a video lesson for this song

request
e-chords
Search
auto scroll beats size up size down change color hide chords drawings
tab show chords e-chords YouTube Clip e-chords hide all tabs e-chords go to top tab