John Denver

home > John Denve... > chords

Country Roads (Melody For) Tab

John Denver

Difficulty: ExpertExpert

tuner correct add songbook print version text version rtf version e-mail
chordsukulelecavacokeyboardtabbassdrumsharmonicsflute Guitar Pro
chords

Country Roads (Melody For)

	    (G)             (Em)                 (D)    
B--------------------------------------------------0-------| 
G----------------------------------0----2----2----------2--| 
D--0---0----2----0----2----0---2---------------------------| 
 1.Al- most Heav-en,  West Vir-gin-ia,  blue ridge moun-tain 
 2.All my   mem-'ries,gath-er  round her min-er's  la-  dy 
 
  (C)               (G)                            (Em) 
B-----------------------------|----------------------------| 
G-----------------------0-----|--------------------------0-| 
D--2-----2---2--0----2--------|--0----0---2---0-----2------| 
 1.Shen--nan-do-ah   ri---ver.   Life is  old there,old--er 
 2.stran-ger to blue wa---ters.  Dark and dus-ty,   painted 
 
                  (D)                            (C) 
B-------0---0-------------------------0--------------------| 
G--0---------------2----2---2-----2--------2------------0--| 
D-------------------------------------------------0--------| 
 1.than the trees, Youn-ger than  the moun-tains, grow--ing 
 2.on   the sky,   Mist-y   taste of  moon-shine, tear-drops 
 
           (G)      Chorus:   (G)           (D)       (Em) 
e------------------|---------------------------------------| 
B------------------|-----------0------------------0--------| 
G--0----2---0------|--0----2---------2----0--2-------2-0---| 
D------------------|---------------------------------------| 
 1.like a   breeze.   Coun-try road, take me home to a place 
 2.in   her eyes. 
 
       (C)     G                          D             C 
e-------0---|--0----0--------------------------------------| 
B--0-3------|-----------3---0----------------0--0----------| 
G-----------|-------------------2----0----2----------2--0--| 
D-----------|----------------------------------------------| 
   I be-long.  West Vir-gin-ia, moun-tain ma-ma,take me home 
                  Em  
  
            G     Verse 3:     D            G 
e----------------|-----------------------------------------| 
B----------------|--------------------------0--0----0----3-| 
G--0----2---0----|--0-0----0---------0--2------------------| 
D----------------|-------------4---------------------------| 
   coun-try road. 3.I hear her voice in the morning hour she 
 
              C          G              D              Em 
B--0-------|--1--1--1-1--0-----0-------------0---0----|0---| 
G------2-0-|----------------------2--0--2----------2--|----| 
 3.calls me.  Ra-di-o re-minds me of my home far a-way.Driv- 
 
                D               Em 
B--0---0----0----------------------------------------------| 
G---------------2-----2-2---2---0----0---0----0-0-------0--| 
 3.ing down the road, I get the feel-ing that I should-'ve 
 
             D 
B-----------------------|------0---1--| 
G--0----0----2---0---2--|--2----------| 
 3.been home yes-ter-day.  Yes-ter-day. 
 
Country Roads by Johnny Denver 
Verse1 
G            Em             D                    C 
Almost Heaven, West Virginia, blue ride mountain Shennandoah 
G 
River. 
                   Em                    D 
Life is old there, older than the trees, younger than the 
           C              G 
mountains, growing like a breeze 
 
Chorus 
        G             D          Em         C 
Country road, take me home, to a place, I belong. 
        G               D             C             G 
West Virginia, mountain mama, take me home, country road. 
 
 
All my memories, gather round her, miner's lady stranger to 
blue waters. 
Dark and dusty,painted on the sky,misty taste of moonshine,  
teardrops in her arms. 
 
CHORUS 
 
I hear her voice in the morning hour she calls me. 
Radio reminds me of my home far away. 
Driving down the road, I get the feeling that I should've 
been home yesterday. Yesterday. 
 

	  

Request the video "Country Roads (Melody For)"  -  Send "Country Roads (Melody For)" Ringtone to your Cell

there isn't a video lesson for this song

request
Full key step upFull key step up
Half key step upHalf key step up
Half key step downHalf key step down
Full key step downFull key step down
Search
auto scroll beats size up size down change color hide chords drawings
tab show chords e-chords YouTube Clip e-chords hide all tabs e-chords go to top tab