Joe Satriani

home > Joe Satria... > chords

Mountain Song Tab

Joe Satriani

Difficulty: ExpertExpert

tuner correct add songbook print version text version rtf version e-mail
chordsukulelecavacokeyboardtabbassdrumsharmonicsflute Guitar Pro
chords

Mountain Song

	  
Tabbed By: DarknessSavior 
Email/AIM: DarknessSavior@aol.com/DarknessSavior 
Tuning - Standard (EADGBe) 
 
------------------------------------------------------------------------------ 
------------------------------------------------------------------------------ 
------------------------------------------------------------------------------ 
--8h10p8---------------------------------------------------------------------- 
---------10v----3v------------------------------------------------------------ 
------------------------------------------------------------------------------ 
  Small Solo During Intro                                                      
 
------------------------------------------------------------------------------ 
--------------------------------------------------------8--------------------- 
--------------------------------------------7-8-10-8-10---10-8---------------- 
-8/10----8-10-10/12-10-8-10----8-10-8-10-10--------------------8/10\0--------- 
------10--------------------10------------------------------------------------ 
------------------------------------------------------------------------------ 
                                                                               
 
------------------------------------------------------------------------------ 
---------------------8v--8-9-8h9p8---6-8--6-4-6-4-6-8-6----------------------- 
---------7-7-----------------------8------------------------------------------ 
----8-10-----10-8-10---------------------------------------------------------- 
-10--------------------------------------------------------------------------- 
------------------------------------------------------------------------------ 
                                                                               
 
----------------------------15-18-20v----------------------------------------- 
----15-16-18-16-18-20-18------------------------------------------------------ 
-17--------------------------------------------------------------------------- 
------------------------------------------------------------------------------ 
------------------------------------------------------------------------------ 
------------------------------------------------------------------------------ 
                                                                               
 
--20-18-16-15-16-----16-15-------------15--16-15------------------------------ 
-----------------18--------18-16-16-18-----------18-16-15-16-18--------------- 
------------------------------------------------------------------------------ 
------------------------------------------------------------------------------ 
------------------------------------------------------------------------------ 
------------------------------------------------------------------------------ 
                                                                               
 
--20-18-16-15-16--------15v--------------------------------------------------- 
-----------------18v---------------------------------------------------------- 
------------------------------------------------------------------------------ 
------------------------------------------------------------------------------ 
------------------------------------------------------------------------------ 
------------------------------------------------------------------------------ 
  Crazy Solo is Next, then chorus (2 bars up), then this intro to verse        
 
------------------------------------------------------------------------------ 
------------------------------------------------------------------------------ 
------------------------------------------------------------------------------ 
------------------------------------------------------------------------------ 
--14/15\8/10-10-13-8/10-8-10-8-6-5-3------------------------------------------ 
------------------------------------------------------------------------------ 
 

	  

Request the video "Mountain Song"  -  Send "Mountain Song" Ringtone to your Cell

there isn't a video lesson for this song

request
e-chords
Search
auto scroll beats size up size down change color hide chords drawings
tab show chords e-chords YouTube Clip e-chords hide all tabs e-chords go to top tab