Jimmy Buffet

home > Jimmy Buff... > chords

Margaritaville (lead parts) Tab

Jimmy Buffet

Difficulty: IntermediateIntermediate

by Superguit

tuner correct add songbook print version text version rtf version e-mail
chordsukulelecavacokeyboardtabbassdrumsharmonicsflute Guitar Pro
chords

Margaritaville (lead parts)

	  Margaritaville 
 
TablEdited by Paride Fioretti 
info@paridefioretti.com 
www.paridefioretti.com 
Tuning : E A D G B E 	Time Signature: 4/4 
 
 |       |       |       |        Dntro armonizzato       |         
|--------------------------------|--------------------------------| 
|--------------------------------|--------------------------------| 
|--------------------------------|2---2---2---0-------2-----------| 
|--------------------------------|4---4---4---2-------4-----------| 
|--------------------------------|--------------------------------| 
|--------------------------------|--------------------------------| 
 
 G7+     |       |       |        A7      |       |       |         
|--------------------------------|--------------------------------| 
|--------------------------------|--------------------------------| 
|2---2---2---0-------2-----------|4---4-------4-------2---0-------| 
|4---4---4---2-------4-----------|5---5-------5-------4---2-------| 
|--------------------------------|--------------------------------| 
|--------------------------------|--------------------------------| 
 
 D       |       |       |        |       |       |       |         
|--------2---2-----------2---2---|--------2---2-----------2---2---| 
|--------3---3-----------3---3---|--------3---3-----------3---3---| 
|--------2---------------2-------|--------2---------------2-------| 
|0-------------------------------|0-------------------------------| 
|----------------0---------------|----------------0---------------| 
|--------------------------------|--------------------------------| 
 
 |       |       |       |        |       |       |       |         
|--------------------------------|--------------------------------| 
|--------------------------------|--------------------------------| 
|--------------------------------|--------------------------------| 
|--------------------------------|--------------------------------| 
|--------------------------------|--------------------------------| 
|--------------------------------|--------------------------------| 
 
 Drmonizzazione 2|       |        G7+     |       |       |         
|5---5---5---3-------5-----------|5---5---5---3-------5-----------| 
|7---7---7---5-------7-----------|7---7---7---5-------7-----------| 
|--------------------------------|--------------------------------| 
|--------------------------------|--------------------------------| 
|--------------------------------|--------------------------------| 
|--------------------------------|--------------------------------| 
 
 A7      |       |       |        D       |       |       |         
|7---7-------7-------5---3-------|2-------2---2-----------2---2---| 
|8---8-------8-------7---5-------|3-------3---3-----------3---3---| 
|--------------------------------|--------2---------------2-------| 
|--------------------------------|--------------------------------| 
|--------------------------------|----------------0---------------| 
|--------------------------------|--------------------------------| 
 
 |       |       |       |        |       |       |       |         
|--------2---2-----------2---2---|--------------------------------| 
|--------3---3-----------3---3---|--------------------------------| 
|--------2---------------2-------|--------------------------------| 
|0-------------------------------|--------------------------------| 
|----------------0---------------|--------------------------------| 
|--------------------------------|--------------------------------| 
 
 Amase   |       |       |        |       |       |       |         
|--------7---7---7---5-------3---|--------------------------------| 
|--------8---8---8---7-------5---|--------------------------------| 
|--------------------------------|--------------------------------| 
|--------------------------------|--------------------------------| 
|--------------------------------|--------------------------------| 
|--------------------------------|--------------------------------| 
 
 D       |       |       |        |       |       |       |         
|--------5---5---5---3-------2---|--------------------------------| 
|--------7---7---7---5-------3---|--------------------------------| 
|--------------------------------|--------------------------------| 
|--------------------------------|--------------------------------| 
|--------------------------------|--------------------------------| 
|--------------------------------|--------------------------------| 
 
 |       |       |       |        |       |       |       |         
|--------------------------------|--------------------------------| 
|--------------------------------|--------------------------------| 
|--------------------------------|--------------------------------| 
|--------------------------------|--------------------------------| 
|--------------------------------|--------------------------------| 
|--------------------------------|--------------------------------| 
 
 D       Solo    |       |        |   trillo      |       |         
|------------2-3-5---5---5---3---|----5~--------------------------| 
|--------------------------------|--------------------------------| 
|--------------------------------|--------------------------------| 
|--------------------------------|--------------------------------| 
|--------------------------------|--------------------------------| 
|--------------------------------|--------------------------------| 
 
 |       |       |       |        |   trillo      |       |         
|------------2-3-5---5---5---3---|----2~--------------------------| 
|--------------------------------|--------------------------------| 
|--------------------------------|--------------------------------| 
|--------------------------------|--------------------------------| 
|--------------------------------|--------------------------------| 
|--------------------------------|--------------------------------| 
 
 |       |       |       |        |   trillo      |       |         
|------------2-3-5---5---5---7---|----5-------5-------3---2-------| 
|--------------------------------|--------------------------------| 
|--------------------------------|--------------------------------| 
|--------------------------------|--------------------------------| 
|--------------------------------|--------------------------------| 
|--------------------------------|--------------------------------| 
 
 Am      |       |       |        |       |       |       |         
|0-------------------------------|--------------------------------| 
|--------------------------------|--------------------------------| 
|--------------------------------|--------------------------------| 
|--------------------------------|--------------------------------| 
|--------------------------------|--------------------------------| 
|--------------------------------|--------------------------------| 
 
 G       |       |       |        Am      |       |       |         
|------------7-------7-----------|------------9-------9-----------| 
|8-------8---------------8-------|10------10--------------10------| 
|----7---------------------------|----9---------------------------| 
|--------------------------------|--------------------------------| 
|--------------------------------|--------------------------------| 
|--------------------------------|--------------------------------| 
 
 D       |       Am      |        G       |       |       |         
|--------------------------------|--------------------------------| 
|----10--10------12--10----------|--------------------------------| 
|11----------11--------------1211|1211----------------------------| 
|--------------------------------|----12--------------------------| 
|--------------------------------|--------------------------------| 
|--------------------------------|--------------------------------| 
 
 Am      |       |       |        |       |       |       |         
|--------7---7---7---5-------3---|--------------------------------| 
|--------8---8---8---7-------5---|--------------------------------| 
|--------------------------------|--------------------------------| 
|--------------------------------|--------------------------------| 
|--------------------------------|--------------------------------| 
|--------------------------------|--------------------------------| 
 
 D       |       |       |        |       |       |       |         
|--------5---5---5---3-------2---|--------------------------------| 
|--------7---7---7---5-------3---|--------------------------------| 
|--------------------------------|--------------------------------| 
|--------------------------------|--------------------------------| 
|--------------------------------|--------------------------------| 
|--------------------------------|--------------------------------| 
 

	  

Request the video "Margaritaville (lead parts)"  -  Send "Margaritaville (lead parts)" Ringtone to your Cell

there isn't a video lesson for this song

request
Full key step upFull key step up
Half key step upHalf key step up
Half key step downHalf key step down
Full key step downFull key step down
Search
auto scroll beats size up size down change color hide chords drawings
tab show chords e-chords YouTube Clip e-chords hide all tabs e-chords go to top tab