Jesús Adrián Romero

home > Jesús Adri... > chords

Abre los cielos Tab

Jesús Adrián Romero

Difficulty: BeginnerBeginner

by LINEKERS

tuner correct add songbook print version text version rtf version e-mail
chordsukulelecavacokeyboardtabbassdrumsharmonicsflute Guitar Pro
chords

Abre los cielos

	  Abre los cielos 

CLaVeS: 

  D2 
e:---0h2p0-------:.      cuando con se toquen con partes así 
B:--------0------:.      Tienen que escuchar bien porque se 
G:----------2*---:.      Las hace rápido, el 2* es porque 
D:---------------:.      casi no se escucha, tambien hay un 0* 
A:---------------:.      Es lo mismo, si me faltan cosas por 
E:---------------:.      Explicar me escriben 

        ................ los rasgados son para arriba 

TAB:::::::::::::::::::::::::::::: 

manda la lluvia.......... 

OuTrO: 

   Asus4   A  C#sus4(7) C#7  F#m7(11)     D2 
e:-----------------------------0---0------0---0---0*---:. 
B:--3--3---2-----7--7----6-------0---0------0---0------:. 
G:--2--2---2--------4----4-----------------------------:. 
D:-----------------------------------------------------:. 
A:-----------------------------------------------------:. 
E:-----------------------------------------------------:. 


   Asus4   A  C#sus4(7) C#7  F#m7(11)     D2 
e:----------------------------0---0*--0---0---0----0h2p0-----:. 
B:--3--3---2-----7--7----6------0---0-------0---0-------0----:. 
G:--2--2---2-----4--4----4--------------------------------2*-:. 
D:-----------------------------------------------------------:. 
A:-----------------------------------------------------------:. 
E:-----------------------------------------------------------:. 


   Asus4   A  C#sus4(7) C#7  F#m7(11)     D2 
e:----------------------------0---4-5-0---0---2----2-0------:. 
B:--3--3---2-----7--7----6------0-----------0---0------0----:. 
G:--2--2---2-----4--4----4-------------------------------2*-:. 
D:----------------------------------------------------------:. 
A:----------------------------------------------------------:. 
E:----------------------------------------------------------:. 


   Asus4   A  C#sus4(7) C#7  F#m7(11)      D2 
e:----------------------------0---0--0---0-0--0----0h2p0-------:. 
B:--3--3---2-----7--7----6------0---0-0---------0-------0------:. 
G:--2--2---2-----4--4----4--------------------------------2*---:. 
D:-------------------------------------------------------------:. 
A:-------------------------------------------------------------:. 
E:-------------------------------------------------------------:. 


   Asus4   A  C#sus4(7) C#7  F#m7(11)     D2              A2 
e:----------------------------0---4-5-0---0---0h2p0---0*---0--:. 
B:--3--3---2-----7--7----6------0-----------0------0-------0--:. 
G:-----2---2--------4----4--------------------------2------2--:. 
D:---------------------------------------------------------2--:. 
A:---------------------------------------------------------0--:. 
E:---------------------------------------------------------x--:. 



Acordes: las notas cuentenlas a partir del puente 


  Asus4    A   C#sus4(7)  C#7     F#m7(11)   D2 
e:--0--/---0--/---4---/----4----/----0----/---0--/ 
B:--3--/---2--/---7---/----6----/----0----/---3--/ 
G:--2--/---2--/---4---/----4----/----2----/---2--/ 
D:--2--/---2--/---6---/----6----/----4----/---0--/ 
A:--0--/---0--/---4---/----4----/----x----/---x--/ 
E:--x--/---x--/---x---/----x----/----x----/---x--/ 

 
	  

Request the video "Abre los cielos"  -  Send "Abre los cielos" Ringtone to your Cell

there isn't a video lesson for this song

request
Full key step upFull key step up
Half key step upHalf key step up
Half key step downHalf key step down
Full key step downFull key step down
e-chords
Search
auto scroll beats size up size down change color hide chords drawings
tab show chords e-chords YouTube Clip e-chords hide all tabs e-chords go to top tab