Jerry Reed

home > Jerry Reed > chords

The Claw Tab

Jerry Reed

Difficulty: ExpertExpert

tuner correct add songbook print version text version rtf version e-mail
chordsukulelecavacokeyboardtabbassdrumsharmonicsflute Guitar Pro
chords

The Claw

	  Intro 
 
----------5-5---------------------------------------------------------- 
------5-7-5---7---5-5-------2------------------------------------------ 
--2/6-------8-7---5-6-----5-2-------2---2---2-------------------------- 
----------------7-----7---4---5-2---1-0-0---0-------------------------- 
----------------------------------0-------3---3p0-----0-2-0-3p2p0------ 
------------------------0-------------------------0h2-------------2p0-- 
 
Main riff bit 
 
------------------------------------------------------------------2-----1-----2-- 
------2-----1-----2-----------------2-----1-----2-----------------1-----1-----1-- 
------0-----0-----0-----------------0-----0-----0-2-------------2-----2-----2---- 
----2-----2-----2---2-------------2-----2-----2-----3p2p0-----0-----------0------ 
--0-----------0-------3p2p0-----0-----------0-------------2p0-------0------------ 
--------0-------------------2p0-------0------------------------------------------ 
 
-----------------------------------------------------2---------5-- 
------------------2----1-----2---------------0-----0-3-----5-7-5-- 
------------------0----0-----0---------------1-----1-2-2/6-------- 
--2-------------2----2-----2---2-----------0-----0---0------------ 
----3p2p0-----0----------0-------3p2p0---------------------------- 
----------2p0-------0------------------2-0-----0------------------ 
 
Repeat everything until you get to the D chord, then play this 
 
--/5---------------------------------------------------------------------------- 
--/5-7---5-5-----2-----1-----2-0---------------------------5--------8-7------7-- 
-----7---5-6-----0-----0-----0-1-------2-----2---5---7---5-6--------9-7------7-- 
-------7-------2-----2-----2---0-2-5p2---2-5---7---7---7-----7-10-7-----7-10---- 
-------------0-----------0------------------------------------------------------ 
-------------------0-----------0------------------------------------------------ 
 
------------------------------------5-5---------------------------------------- 
------------5-----------------7-----5---7---5-5-------2------------------------ 
------5---7-5h6-------2---5---7-5-7---8-7---5-6-----5-2-------2---2---2-------- 
--7-0---7-------2-5p2---0---0-------------7-----7---4---5-2---1-0-0---0-------- 
------------------------------------------------------------0-------3---0-3/4-- 
--------------------------------------------------0---------------------------- 
 
Phew! Now play the main riff again, then the next bit is 
 
--/9----7----5----4----3----2-0---2---------------------5---5-5------ 
------------------------------------1p0-----------------5-------5-5-- 
--/9-/7---/6---/5---/4---/2-----2-------2---2-5---7/8-8-----8-7-5-6-- 
------------------------------------------0-----0---------0---------- 
--------------------------------------------------------------------- 
--------------------------------------------------------------------- 
 
-----------------------------------------0--------10----8h9-------------------------------------- 
------------------------------8---10-8/9-----8-10----10-----10-10-------------------------------- 
----------------------2-5-7-9---9----------9------------------------7---5h6---------------------- 
--7---5-----------------------------------------------------------7---7-----7-------------------- 
----0---0-6p5p0-5-3h4---------------------------------------------------------------0-3p2p0------ 
------------------------------------------------------------------------------0-0-2---------2p0-- 
 
Alright, again play the main riff before eplaying this awesome ending here 
 
--7--------------------------------------------5-----8-9-10-11-12-8-7-5---5-8-10-- 
--8--------7-5-------------------1p0---------------------------------------------- 
----9-7----7-5h6-6-------5-0/1/2-----2---2-2--------------------------6---6------- 
--------10-------7p5-----0---------------0-----------7--------------6-5---5------- 
---------------------7p0---0/1/2-----------3h4---0----------------9-----0--------- 
---------------------------------------0-----------6-7---------12----------------- 
 
--8-------5---5-5--------------------- 
----10-10-----5---7---5-5---------8--- 
--8-----7-5h6-6-8-7---5-6-----5---6--- 
--------------7-----7-----7---4---7--- 
--9-----8-7---7-----------------0----- 
--------------5-------------0--------- 
 

	  

Request the video "The Claw"  -  Send "The Claw" Ringtone to your Cell

there isn't a video lesson for this song

request
Full key step upFull key step up
Half key step upHalf key step up
Half key step downHalf key step down
Full key step downFull key step down
e-chords
Search
auto scroll beats size up size down change color hide chords drawings
tab show chords e-chords YouTube Clip e-chords hide all tabs e-chords go to top tab