Jason Becker

home > Jason Beck... > chords

Air Tab

Jason Becker

Difficulty: ExpertExpert

by Vallim guitar

tuner correct add songbook print version text version rtf version e-mail
chordsukulelecavacokeyboardtabbassdrumsharmonicsflute Guitar Pro
chords

Air

(Júlio Vallim)

	   
  
  W      W      W      W      W      W      W      W      W 
|------|------|------|------|------|------|------|------|------| 
|------|------|------|------|------|------|------|------|------| 
|------|------|------|------|------|------|------|------|------| 
|------|------|------|------|------|------|------|------|------| 
|------|------|------|------|------|------|------|------|------| 
|------|------|------|------|------|------|------|------|------| 
 
 
  W      W      W      W      W      W      W      W      W 
|------|------|------|------|------|------|------|------|------| 
|------|------|------|------|------|------|------|------|------| 
|------|------|------|------|------|------|------|------|------| 
|------|------|------|------|------|------|------|------|------| 
|------|------|------|------|------|------|------|------|------| 
|------|------|------|------|------|------|------|------|------| 
 
 
  W      Q  Q    Q  Q    Q  Q    Q  Q    Q  Q    Q   Q     Q   Q     Q   Q 
|------|-------|-------|-------|-------|-------|--------|---------|---------| 
|------|-------|-------|-------|-------|-------|--------|---------|---------| 
|------|-------|-------|-------|----7--|-6-----|--------|---------|---------| 
|------|----0--|-2--4--|-5--7--|-9-----|-------|--------|---------|-----14--| 
|------|-------|-------|-------|-------|----7--|-9--10--|-12--14--|-16------| 
|------|-------|-------|-------|-------|-------|--------|---------|---------| 
 
 
   Q   Q     Q   Q     Q   Q     Q   Q 
|---------|---------|---------|---------| 
|---------|---------|---------|---------| 
|---------|---------|---------|---------| 
|-12------|---------|---------|---------| 
|---------|---------|---------|-----21--| 
|-----14--|-15--17--|-19--21--|-22------| 
 
 
   Q   Q     Q   Q     Q   Q     Q   Q     Q  Q 
|---------|---------|---------|---------|--------| 
|---------|---------|---------|---------|--------| 
|---------|---------|---------|---------|--------| 
|---------|---------|---------|---------|-----0--| 
|-19------|---------|---------|---------|--------| 
|-----15--|-17--19--|-21--22--|-24--24--|-22-----| 
 
 
  Q  Q    Q  Q    Q  Q    Q  Q    Q   Q 
|-------|-------|-------|-------|--------| 
|-------|-------|-------|-------|--------| 
|-------|-------|----7--|-6-----|--------| 
|-2--4--|-5--7--|-9-----|-------|--------| 
|-------|-------|-------|----7--|-9--10--| 
|-------|-------|-------|-------|--------| 
 
 
   Q   Q     Q   Q     Q   Q     Q   Q 
|---------|---------|---------|---------| 
|---------|---------|---------|---------| 
|---------|---------|---------|---------| 
|---------|-----14--|-12------|---------| 
|-12--14--|-16------|---------|---------| 
|---------|---------|-----14--|-15--17--| 
 
 
   Q   Q     Q   Q     Q   Q     Q   Q 
|---------|---------|---------|---------| 
|---------|---------|---------|---------| 
|---------|---------|---------|---------| 
|---------|---------|---------|---------| 
|---------|-----21--|-19------|---------| 
|-19--21--|-22------|-----15--|-17--19--| 
 
 
   Q   Q     Q   Q    E E E E   E E E  E    H 
|---------|---------|---------|---5-9-12-|-17----| 
|---------|---------|-------3-|-5--------|-------| 
|---------|---------|-----2---|----------|-------| 
|---------|---------|-0-4-----|----------|-------| 
|---------|-----21--|---------|----------|-------| 
|-21--22--|-24------|---------|----------|-------| 
 
 
                   6/8 
   H       +H       W        W        W        W 
|-------|---------|--------|--------|--------|------| 
|-19----|-(19)----|--------|--------|--------|------| 
|-------|---------|--------|--------|--------|------| 
|-------|---------|--------|--------|--------|------| 
|-------|---------|--------|--------|--------|------| 
|-------|---------|--------|--------|--------|------| 
 
 
  W        W        W        W        W        W 
|--------|--------|--------|--------|--------|------| 
|--------|--------|--------|--------|--------|------| 
|--------|--------|--------|--------|--------|------| 
|--------|--------|--------|--------|--------|------| 
|--------|--------|--------|--------|--------|------| 
|--------|--------|--------|--------|--------|------| 
 
 
  W        W        W        W        W        W 
|--------|--------|--------|--------|--------|------| 
|--------|--------|--------|--------|--------|------| 
|--------|--------|--------|--------|--------|------| 
|--------|--------|--------|--------|--------|------| 
|--------|--------|--------|--------|--------|------| 
|--------|--------|--------|--------|--------|------| 
 
 
  W        W        W        W        W        W 
|--------|--------|--------|--------|--------|------| 
|--------|--------|--------|--------|--------|------| 
|--------|--------|--------|--------|--------|------| 
|--------|--------|--------|--------|--------|------| 
|--------|--------|--------|--------|--------|------| 
|--------|--------|--------|--------|--------|------| 
 
 
  W        W        W        W        W        W 
|--------|--------|--------|--------|--------|------| 
|--------|--------|--------|--------|--------|------| 
|--------|--------|--------|--------|--------|------| 
|--------|--------|--------|--------|--------|------| 
|--------|--------|--------|--------|--------|------| 
|--------|--------|--------|--------|--------|------| 
 
 
                     4/4 
  W        W          S S S S S  S S S S S S  S  S  S  S  S 
|--------|----------|---------------------------------------| 
|--------|----------|---------------------------------------| 
|--------|----------|---------------------------------------| 
|--------|----------|-2-4-6-7-9-11-9-7-6-7-9-11-13-14-16-18-| 
|--------|----------|---------------------------------------| 
|--------|----------|---------------------------------------| 
 
 
   S  S  S  S  S  S  S  S S S S S S S  S  S    S S S S S S S S S S S S S S S S 
|-------------------------------4-7---------|----------------------------------| 
|-----------------------------6-----9----12-|-11-9-7-5-4-2---------------------| 
|-16------------------------7---------10----|--------------4-3-4-3-3-----------| 
|----18-------------------9-----------------|----------------------6-4-2-1-----| 
|-------20-------------11-------------------|------------------------------4-2-| 
|----------22-19-16-13----------------------|----------------------------------| 
 
 
  S S S S S S S S  S  S  S  S  S  S  S  S 
|-------------3-6-11----------------11----| 
|-------4---4--------11----------11----11-| 
|---0-3---3-------------12----12----------| 
|-1------------------------13-------------| 
|-----------------------------------------| 
|-----------------------------------------| 
 
 
   S  S  S  S  S  S  S  S S S S S  S  S  S  S 
|-12----------------------------7-12-------12-| 
|----12-----------------------9------12-------| 
|-------13------------------9-----------13----| 
|----------14-------------9-------------------| 
|-------------14-------11---------------------| 
|----------------16-12------------------------| 
 
 
   S  S  S  S  S  S S S S S S S  S  S  S  S 
|-11------------------------4-7-11-------11-| 
|----12-----------------0-4--------12-------| 
|-------13------------1---------------13----| 
|----------13-------1-----------------------| 
|-------------14----------------------------| 
|----------------16-------------------------| 
 
 
   S  S  S  S  S  S  S  S  S  S S S  S  S  S  S 
|-10------------------------------7-10----------| 
|----12-------------------------9------12----15-| 
|-------13-------------------10-----------13----| 
|----------15-------------12--------------------| 
|-------------17-------14-----------------------| 
|----------------19-16--------------------------| 
 
 
   S  S  S  S  S  S  S  S  S S S S S  S  S  S 
|--------------------------------6-9----------| 
|-14---------------------------8-----11----14-| 
|----15----------------------9----------12----| 
|-------17----------------11------------------| 
|----------19----------13---------------------| 
|-------------21-18-15------------------------| 
 
 
   S  S  S  S  S  S  S  S  S  S  S  S  S  S  S  S 
|-------------11----------------------------------| 
|-12-------12----12-------------------------------| 
|----13-------------13----------------------20----| 
|-------13-------------13-14-16-18-20-21-23----21-| 
|-------------------------------------------------| 
|-------------------------------------------------| 
 
 
   S  S  S  S  S  S  S  S  S  S  S S  S  S  S  S 
|----------------------------------8-11----------| 
|-------------------------------10------13----16-| 
|-20-------------------------11------------14----| 
|----22-------------------13---------------------| 
|-------24-21----------15------------------------| 
|-------------23-20-17---------------------------| 
 
 
   S  S  S  S  S  S  S  S  S  S  S  S  S S S S 
|----------------------------------------------| 
|-17-------------------------------------------| 
|----18----18----------------------------------| 
|-------18----18----21-19-18-16-14-13-11-9-7-6-| 
|----------------19----------------------------| 
|----------------------------------------------| 
 
 
  S S S S S S S S  S S S  S S S S S   S S S S S S S S S S S S S S S S 
|-------5-7-5---9------9--7---------|-------4-5-4---7-----7-5---------| 
|-----5-------5---10-----10-9-7-----|-----5-------5---9-----9-7-5-----| 
|---6----------------9--------9-6-4-|---4---------------9-------8-6-4-| 
|-7-------------------------------7-|-6-----------------------------7-| 
|-----------------------------------|---------------------------------| 
|-----------------------------------|---------------------------------| 
 
 
  S S S S S  S  S  S  S  S  S  S  S  S  S S   S S S S S S S  S S S S S S S S S 
|-----2-5-8-------11------------------------|----------------7-5-4-5-4---4-2-0-| 
|---4-------10-------13----16---------------|-----2-4-5-7-9-10---7---7-5-7---4-| 
|-5------------11-------14----17------------|---1------------------------------| 
|-----------------------------19-16-------4-|-2--------------------------------| 
|-----------------------------------18----6-|----------------------------------| 
|-----------------------------------20-17---|----------------------------------| 
 
 
  S  S  S  S  S  S  S  S  S  S  S  S  S  S  S  S 
|-2--8-11----11----------------------------------| 
|---10----13----13-------------------------------| 
|---------14----14-11----------11----11----------| 
|---------------------13----13----13----13-------| 
|---------------------15-12-15----15----15-12--9-| 
|---------------------------------------------11-| 
 
 
   S S S S S S S S S S S S S S S S 
|----------7-----6---------------6-| 
|--------9---9-7-9-7-9-7-5---5-7-9-| 
|------8-------------9---8-6-8-----| 
|----9-----------------------------| 
|-11-------------------------------| 
|----------------------------------| 
 
 
  S  S  S  S  S  S  S  S  S  S  S  S  S  S  S  S 
|----9-12----12----------------------------------| 
|-8-11----14----14-------------------------------| 
|---------15----15-12----------12----12----------| 
|---------------------14----14----14----14-------| 
|---------------------16-13-16----16----16-13-10-| 
|---------------------------------------------12-| 
 
 
   Q..    S  S  S  S  S S  S E   W 
|------------------------------|------| 
|------------------------------|------| 
|------------------------------|------| 
|------------------------------|-9----| 
|-----------------------9------|------| 
|-11-----11-12-14-11-12-9-11-7-|------| 
 
 
  Q..   S  S  S S  S S S E   W          S S S S S S S S S S S S S S S S 
|--------------------------|----------|---------------------------------| 
|--------------------------|----------|---------------------------------| 
|--------------------------|----------|---------------------------------| 
|--------------------------|-7--------|---------------------------------| 
|--------------------4-4---|----------|---5-7-5---5-7-5---0---0-2-0---0-| 
|-9-----9-10-12-9-10-7---5-|----------|-7-8---8-7-8---8-7-3-2-3---3-2-3-| 
 
 
  S S S S S S S S  S  S  S  S  S  S  S  S 
|-----------1-4-7-10----------13----------| 
|---------0-3---9----12----------15-------| 
|-------1------------13-10-------16-13----| 
|-----0-3------------------12----------15-| 
|---2----------------------14----------17-| 
|-1-4-------------------------------------| 
 
 
   S  S  S  S  S  S  S  S  S  S  S  S  S  S  S  S 
|-14----------------------12----------------------| 
|----14----------------14----12----------------12-| 
|----14----------------14----13----------------13-| 
|-------16----------16----------14----------14----| 
|----------16----16----------------14----14-------| 
|----------17-14-17----------------16-12-16-------| 
 
 
 2/4 
   S S  S  S  S  S  S  S    S  S  S  S  S  S  S  S 
|-10---------------------|-------------------------| 
|------------------------|-------------------------| 
|------------------------|-------------------------| 
|------11-12-14-16-17-19-|-------------------------| 
|------------------------|-21-22-21-21-------------| 
|------------------------|-------24----22-24-21-22-| 
 
 
  S S S S S S S S   S S S S  S  S  S  S 
|-----------------|-------2-10--9--------| 
|-2-2---5---5-3-2-|-3---3------12-10--8--| 
|-4---3-----------|---4--------------11--| 
|---------4-------|----------------------| 
|-----------------|----------------------| 
|-----------------|----------------------| 
 
 
  S  S S S S  S S  S    S  S  S  S  S  S  S  S 
|------------------9-|-10----------------------| 
|---------------8-11-|----12----------------14-| 
|-9--7-7-6----9------|----11-------------12-15-| 
|---11---9-8-11------|-------12-12----14-------| 
|--------------------|----------16-13-16-------| 
|--------------------|-------------------------| 
 
 
   S  S  S  S  S  S  S  S    S  S  S  S  S  S  S  S 
|-------------------14----|-------------------------| 
|-15----------17----------|-17----15----14----------| 
|----16----16----16----16-|----16----16----16----16-| 
|----16----16----16----16-|----16----16----16-17-19-| 
|-------17----------------|-------------------------| 
|-------------------------|-------------------------| 
 
 
   S  S  S  S  S  S  S  S   S  S S  S  S  S  S  S 
|-------------10----------|-9---------10----------| 
|-17-------12----12----12-|---11---11----12----12-| 
|----16----12----11----11-|---12-9-12----11----11-| 
|----17-14----------12----|-----------------12----| 
|-------------------------|-----------------------| 
|-------------------------|-----------------------| 
 
 
   S  S  S  S  S  S  S  S    S  S  S  S  S  S  S  S 
|-10----------10----------|-10----------12----------| 
|----12----12----12----12-|----12----12----14----14-| 
|----12----12----11----11-|----13-10-13----14----14-| 
|-------12----------12----|-------------------14----| 
|-------------------------|-------------------------| 
|-------------------------|-------------------------| 
 
 
   S  S  S  S  S  S  S  S    S  S  S  S  S  S  S  S 
|-14----------------------|-------------14----------| 
|----14----14-12-14-------|----------14----14-------| 
|----15----15----16-------|----------15----15-------| 
|-------16----------16----|-------16----------16----| 
|-------------------16-13-|----16----------------16-| 
|----------------------16-|-14-18----------------18-| 
 
 
   S  S  S  S  Q     S  S  S  S  S  S  S  S    S  S  S  S  Q 
|-------------14--|-13----------13----------|-------------14---| 
|----------15-----|----14----14----14-------|----------14------| 
|-------16-18-----|----13----13----13-------|----------15------| 
|----16-----------|-------15----------15----|-------16---------| 
|-14-17-----------|----------------------16-|----16------------| 
|-----------------|----------------------16-|-14-18------------| 
 
 
   S  S  S  S  S  S  S  S    S  S  S  S  Q 
|-12----------12----------|-------------12--| 
|----14----14----14-------|----------12-----| 
|----14----14----14-------|----------13-----| 
|-------14----------14----|-------14--------| 
|----------------------16-|----14-----------| 
|----------------------17-|-12-16-----------| 
 
 
  S S S S S S S  S   S  S  S  S  S  S  S  S 
|-------------2--9-|-9----------------------| 
|-------2---2---11-|---11----------------14-| 
|-------3---3------|---11----------------15-| 
|-----4---4--------|------11----------16----| 
|---4--------------|---------13----16-------| 
|-2-6--------------|---------16-14-18-------| 
 
 
   S  S  S  S  S  S  S  S    S  S  S  S  S  S  S  S 
|-14----------------------|-14----------14----14----| 
|----14----------------14-|----14----14----14----14-| 
|----15----------------15-|----15----15----15----15-| 
|-------16----------16----|-------16----------------| 
|----------16----16-------|-------------------------| 
|----------18-14-18-------|-------------------------| 
 
 
   S  S  S  S  S  S  S  S    S  S  S  S  S  S  S  S 
|----10-14----15----18----|-19----------------------| 
|-12-14----15----17----19-|----19----------------15-| 
|----------16----18----18-|----19----------------16-| 
|-------------------------|-------21----------16----| 
|-------------------------|----------21----17-------| 
|-------------------------|----------22-19-21-------| 
 
 
   S  S  S  S  S  S  S  S    S  S  S  S  S  S E 
|-14----15-14-------------|---------------------| 
|----15----17-15-14----14-|---------------------| 
|----16----------16-15-16-|----14---------------| 
|-------------------------|-16-18----14----11---| 
|-------------------------|-------16-17-13-14-9-| 
|-------------------------|---------------------| 
 
 
   S  S  S  S  S  S  S  S    S  S  S S S S S S 
|-17-15-------------------|---------------------| 
|----19-17-15-------------|---------------------| 
|----------18-16-14-------|---------------------| 
|----------------17-16-14-|----------4----------| 
|----------------------17-|-16-14----7-5-4---4--| 
|-------------------------|----17-15-----7-6-7--| 
 
 
  S S S S S S S S   S S S S S S S S 
|-----------------|-----------------| 
|-----------------|-----------------| 
|-----------------|-----------------| 
|-----------2-4-5-|---------5-4-----| 
|---0-5-4-4-5---7-|---4---0---7-5-4-| 
|-2-3---7---------|-6-7-2-3-------7-| 
 
 
  S S S S S S S  S    S  S  S  S  S  S  S  S 
|------------------|-------------------------| 
|------------------|-------------------------| 
|------------------|-------------------------| 
|------------------|-------------------------| 
|---4---4-5-7-9-10-|-12-14-16-17-19-17-16-14-| 
|-6-7-2-6----------|-------------------------| 
 
 
   S  S  S  S  S  S  S  S    S  S  S  S  S  S  S  S 
|-------------------------|-------------------------| 
|-------------------------|-------------------------| 
|-------------------------|-------------------------| 
|-------------------------|-------------------21-23-| 
|-12-10-12-14-16-17-19-21-|-22-21-19-21-22-24-------| 
|-------------------------|-------------------------| 
 
 
   S  S  S  S  S  S  S  S    S  S  S  S  S  S  S  S 
|-------------------------|-------------------------| 
|-------------------------|-------------------------| 
|-------------------------|-------------------------| 
|-24-23-21-19-17-19----19-|----19----19-17-19----19-| 
|-------------------19----|-21----17----------19----| 
|-------------------------|-------------------------| 
 
 
   S  S  S  S  S  S  S  S    S  S  S  S  S  S  S  S 
|-------------------------|-------------------------| 
|-------------------------|-------------------------| 
|-------19-18-19----19-18-|-19----19-18-19----19-18-| 
|----19----------21-------|----19----------21-------| 
|-21----------------------|-------------------------| 
|-------------------------|-------------------------| 
 
 
   S  S  S  S  S  S  S  S    S  S S S S S S S 
|-------------------------|-------------------| 
|----17-15-17-19-17-15-14-|-12-10-8-7-5-3-2-5-| 
|-19----------------------|-------------------| 
|-------------------------|-------------------| 
|-------------------------|-------------------| 
|-------------------------|-------------------| 
 
 
  S S S S S S S S   S S S S S S S S 
|-------5-3-5---5-|---5---5-3-5---5-| 
|-3-5-7-------5---|-7---3-------5---| 
|-----------------|-----------------| 
|-----------------|-----------------| 
|-----------------|-----------------| 
|-----------------|-----------------| 
 
 
  S S  S S  S  S  S S    S  S  S S  S  S  S S 
|---5-10-9-10----10-9-|-10----10-9-10----10-9-| 
|-7-----------12------|----10---------12------| 
|---------------------|-----------------------| 
|---------------------|-----------------------| 
|---------------------|-----------------------| 
|---------------------|-----------------------| 
 
 
   S  S  S  S  S  S  S  S    S  S  S  S  S S S  S 
|-10-12-10-12-14----------|-14-15-14-12-10-9-7-12-| 
|----------------15----15-|-----------------------| 
|-------------------14----|-----------------------| 
|-------------------------|-----------------------| 
|-------------------------|-----------------------| 
|-------------------------|-----------------------| 
 
 
   S  S  S  S  S  S  S  S    S  S  S  S  S  S  S  S 
|-10----10-14-17----------|-------------------------| 
|----10----------19-------|-20----------------------| 
|-------------------19----|----21-------23----------| 
|----------------------19-|-------23-------24-------| 
|-------------------------|----------24-------24-21-| 
|-------------------------|-------------------------| 
 
 
   S  S  S  S  S  S  S  S    S  S  S  S  S  S  S  S 
|-------------------------|-------------------------| 
|-------------------------|-------------------------| 
|-21----------------------|-21----------------------| 
|----23-------24-21-------|----23-------23----------| 
|-------24----------22----|-------24-------24-------| 
|----------24----------22-|----------24-------24-21-| 
 
 
  S S S S S S S S   S S  S S S S S S 
|-----------------|------------------| 
|-----------------|------------5-7---| 
|-2---------------|----------7-----7-| 
|---2---2---------|--------9---------| 
|-----4---0-2-4---|---9--------------| 
|---------------5-|-7---10-----------| 
 
 
  S S S S S S S S   S S S S S S S S   H      S  S S  S S  S S S   H 
|-----------------|-----------0-2-5-|-7----|------------------3-|-5----| 
|-8-7-5-3-2-------|---------2-3---8-|------|----------------5-7-|------| 
|-----------2---2-|-------4---------|------|--------------7-----|------| 
|-------------4---|-0-4-5-7---------|------|---------7-9-11-----|------| 
|-----------------|---7-------------|------|----7-9-10----------|------| 
|-----------------|-----------------|------|-9-10---------------|------| 
 
 
  S S S S S S S S   H       S  S  S  S  S  S  S  S 
|---------------2-|-3----|-19----------------------| 
|-----------2-3-5-|------|----19----19-21-19----19-| 
|-------0-2-4-----|------|----19----19----19----19-| 
|---0-2-4---------|------|-------21----------21----| 
|---4-------------|------|-------------------------| 
|-7---------------|------|-------------------------| 
 
 
   S  S  S  S  S  S  S  S    S  S  S  S  S  S  S  S 
|-17----------------------|-15-14----------14-15-14--| 
|----17----17-19-17----17-|----17-15-14-14-15----15--| 
|----18----18----18-15-18-|----------16--------------| 
|-------19----------------|--------------------------| 
|-------------------------|--------------------------| 
|-------------------------|--------------------------| 
 
 
   S  S  S  S  S  S  S  S    S  S  S  S  S  S  S  S 
|-17-15-------------14----|-------------------------| 
|----19-17-15----15----15-|-------------------------| 
|----------18-15-16----16-|-------------12-11----11-| 
|-------------------------|-16-14----14----12----12-| 
|-------------------------|----16-12-16-------12----| 
|-------------------------|-------------------------| 
 
 
   S  S  S  S  S  S  S  S    S  S  S  S  S  S  S  S 
|-------------------------|-10----------10----------| 
|-10----------12-10----10-|----12----12----10----10-| 
|----11----12----11----11-|----12----12----11----11-| 
|----14-11-14-------12----|-------12----------12----| 
|-------------------------|-------------------------| 
|-------------------------|-------------------------| 
 
 
  S  S  S  S  S  S  S  S    S  S  S  S  S  S  S  S 
|-9----------10-14-10-14-|-15-14----------------14-| 
|---10----10----10----17-|----17-15-14----14-15-17-| 
|----9-----9-------------|----------16-15-16-------| 
|------11----------------|-------------------------| 
|------------------------|-------------------------| 
|------------------------|-------------------------| 
 
 
   S  S  S  S  S  S  S  S    S  S  S  S  S  S  S  S 
|-12-------------10-14----|-14-12----12-14----------| 
|----14----------12----15-|----14-11-14----15-------| 
|----15-12-12-11-------16-|----------------16-------| 
|----------14-------------|-------------------16----| 
|-------------------------|----------------------17-| 
|-------------------------|----------------------19-| 
 
 
   S S S S S S S  S    S  S  S  S  S  S  S  S 
|------------0-2--9-|-12----21----------------| 
|------------2---11-|----23----23-24-------19-| 
|--------4-3--------|----23----23-23-23----19-| 
|----0-0-4----------|----------------24-21----| 
|----2--------------|-------------------------| 
|-14----------------|-------------------------| 
 
 
   S  S  S  S  S  S  S  S    S  S  S  S  S  S  S  S 
|-------------------------|-------------15-14-------| 
|-21----------22-------17-|-19-17----17----17-15-14-| 
|----22----22----21----18-|----18-15-18----------16-| 
|----24-21-24----23-19----|-------------------------| 
|-------------------------|-------------------------| 
|-------------------------|-------------------------| 
 
 
   S  S  S  S  S  S  S  S    S  S  S  S  S  S  S  S 
|----14-19----17-15-------|-------14----------------| 
|-14-15----19----19-17-15-|----15----15-------------| 
|----------19----------18-|-15-16----16-------------| 
|-------------------------|-------------16-14----14-| 
|-------------------------|----------------16-12-16-| 
|-------------------------|-------------------------| 
 
 
   S  S  S  S  S S S S   S S S S  S  S  S  S 
|----------------------|-7-5---5-10----------| 
|-------------10-8---8-|---7-3-7----12----12-| 
|-12-11----11----9-6-9-|------------12----12-| 
|----12----12----------|---------------12----| 
|-------12-------------|---------------------| 
|----------------------|---------------------| 
 
 
   S  S  S  S S  S  S  S    S  S  S  S  S  S  S  S 
|-10----------9----------|-10-14-10-14-15-14-------| 
|----10----10---10----10-|----10----17----17-15-14-| 
|----11----11----9-----9-|----------------------16-| 
|-------12---------11----|-------------------------| 
|------------------------|-------------------------| 
|------------------------|-------------------------| 
 
 
   S  S  S  S  S  S  S  S    S  S  S  S  S  S  S  S 
|----------14-12----------|----10-14----14-12----12-| 
|----14-15-17----14-------|----12----15----14-11-14-| 
|-15-16----------15-12-12-|-11-------16-------------| 
|----------------------14-|-------------------------| 
|-------------------------|-------------------------| 
|-------------------------|-------------------------| 
 
 
   S  S  S  S  S S S S   S S S  S  S  S  S  S   E E E E 
|-14-------------------|---0-2--9-12----21----|---------| 
|----15----------------|---2---11----23----23-|---------| 
|----16--------------4-|-3-----------23----23-|---------| 
|-------16-------0-0-4-|----------------------|---4-5---| 
|----------17----2-----|----------------------|-2-------| 
|----------19-14-------|----------------------|-------7-| 
 
 
  E  E  E E    E  E  E  E    E  E E E   E E  E E 
|-----------|-------------|-----------|------------| 
|-----------|-------------|-----------|------------| 
|-----------|-------------|-----------|------------| 
|-----------|-------------|-----------|------------| 
|---10-12---|----12-10----|----10-9-7-|-9-9-11-9---| 
|-9-------9-|-10-------10-|-12--------|------------| 
 
 
  S  S E E E    E E E E   E E E E   E E E E 
|------------|----------|---------|---------| 
|------------|----------|---------|---------| 
|------------|----------|---------|---------| 
|-9----------|--------5-|-4-2-0-4-|-2-0---2-| 
|---11-9-9-9-|-10-9-7---|---------|-----4---| 
|------------|----------|---------|---------| 
 
 
  E E E E   E E E E   E E E E   E E E E   E E E E 
|---------|---------|---------|---------|-----------| 
|---------|---------|---------|---------|-----------| 
|---------|---------|---------|---------|-----------| 
|-0-----0-|---0-2---|-4-------|-----4---|-5---------| 
|---4-2---|-2-----4-|---5---9-|-7-5---5-|---7-------| 
|---------|---------|-----7---|---------|-----8-7---| 
 
 
  E E E E   E E E E   Q  Q    E E E E   E  E  E E 
|---------|---------|-------|---------|-----------| 
|---------|---------|-------|---------|-----------| 
|---------|---------|-------|---------|-----------| 
|-------8-|---------|-------|---4-5---|-----------| 
|---7-----|---5-6-7-|-5--4--|-2-------|---10-12---| 
|-6---9---|-7-------|-------|-------7-|-9-------9-| 
 
 
   E  E  E  E    E  E E E   E E  E E   S  S E E E 
|-------------|-----------|----------|--------------| 
|-------------|-----------|----------|--------------| 
|-------------|-----------|----------|--------------| 
|-------------|-----------|----------|-9------------| 
|----12-10----|----10-9-7-|-9-9-11-9-|---11-9-9-9---| 
|-10-------10-|-12--------|----------|--------------| 
 
 
   E E E E   E E E E   E E E E   E E E E 
|----------|---------|---------|---------| 
|----------|---------|---------|---------| 
|----------|---------|---------|---------| 
|--------5-|-4-2-0-4-|-2-0---2-|-0-----0-| 
|-10-9-7---|---------|-----4---|---4-2---| 
|----------|---------|---------|---------| 
 
 
  E E E E   E E E E   E E E E   E E E E   E E E E 
|---------|---------|---------|---------|---------| 
|---------|---------|---------|---------|---------| 
|---------|---------|---------|---------|---------| 
|---0-2---|-4-------|-----4---|-5-------|-------8-| 
|-2-----4-|---5---9-|-7-5---5-|---7-----|---7-----| 
|---------|-----7---|---------|-----8-7-|-6---9---| 
 
 
  E E E E   Q  Q    H 
|---------|-------|------*| 
|---------|-------|------*| 
|---------|-------|------*| 
|---------|-------|------*| 
|---5-6-7-|-5--4--|-2----*| 
|-7-------|-------|------*| 
 
 
 
 

	  

Request the video "Air"  -  Send "Air" Ringtone to your Cell

there isn't a video lesson for this song

request
Full key step upFull key step up
Half key step upHalf key step up
Half key step downHalf key step down
Full key step downFull key step down
Search
auto scroll beats size up size down change color hide chords drawings
tab show chords e-chords YouTube Clip e-chords hide all tabs e-chords go to top tab