James Taylor

home > James Tayl... > chords

Wandering Tab

James Taylor

Difficulty: BeginnerBeginner

by europeu

tuner correct add songbook print version text version rtf version e-mail
chordsukulelecavacokeyboardtabbassdrumsharmonicsflute Guitar Pro
chords

Wandering

Year: 1990 - Album: Gorilla

	  Capo II 
  
INTRO: 
  
------0-------0|------0---------|------0-------0|------0--------- 
----2-----2----|--2-------2-----|----2-----2----|--2-------2----- 
--4---------4--|----4---------4-|--4---------4--|----4---------4- 
---------------|--------2-------|---------------|--------2------- 
0--------------|0---------------|0--------------|0--------------- 
--------0------|------------0---|--------0------|------------0--- 
  
VERSES 1,2,3,4 
  
---------------|---------------|----2--------2--|----2--------2-- 
----2-----2----|----5-----5----|--2---2----2---2|--3---3----3---3 
--4-----4------|--6-----6------|4--------3------|---------------- 
---------------|---------------|4--------4------|4--------2------ 
0-----0-----0--|4-----4-----4--|----------------|2--------2------ 
---------------|---------------|----------------|---------------- 
  
-------------|----------2-|-2-------|------0------0|-----0------- 
---2-------3-|---5--------|---3-----|----2----2----|-2-------2--- 
-------------|--------2--2|-----2---|--4--------4--|---4--------4 
-2--2---2h4--|-6--6--0----|-------4-|--------------|-------2----- 
0----0-2----2|4-----4-----|---------|0-------------|0------------ 
-------------|------------|-0-------|--------0-----|----------0-- 
  
VERSE 5 
  
---------------|---------------|----2--------2--|----2--------2-- 
----2-----2----|----5-----5----|--2---2----2---2|--3---3----3---3 
--4-----4------|--6-----6------|4--------3------|---------------- 
---------------|---------------|4--------4------|4--------2------ 
0-----0-----0--|4-----4-----4--|----------------|2--------2------ 
---------------|---------------|----------------|---------------- 
  
-------------|----------2-|-0h2----|------0------0|------0------- 
---2-------3-|----5-------|-----3--|----2----2----|--2-------2--- 
-------------|--------2--2|-------2|--4--------4--|----4--------4 
-2--2---2h4--|-4h6---0----|--------|--------------|--------2----- 
0----0-2----2|4----4------|--------|0-------------|0------------- 
-------------|------------|-0------|--------0-----|-----------0-- 
  
VERSE 6 
  
---------------|---------------|----2--------2--|----2--------2-- 
----2-----2----|----5-----5----|--2---2----2---2|--3---3----3---3 
--4-----4------|--6-----6------|4--------3------|---------------- 
---------------|---------------|4--------4------|4--------2------ 
0-----0-----0--|4-----4-----4--|----------------|2--------2------ 
---------------|---------------|----------------|---------------- 
  
-------------|----------2-|---2--------5-|2-------0---------0---- 
---2-------3-|---5--------|--------3s5--5|--3-----2p0-----0---0-- 
-------------|--------2--2|-2--2---2s4---|----2-------2---------- 
-2--2---2h4--|-6--6--0----|0-------------|----------------------- 
0----0-2----2|4----4------|--------------|----------------------- 
-------------|------------|------0-------|0-----0-------0-------0 
  
-----------------|--------------2--|-2-------| 
----2---------3--|----5------------|---3-----| 
-----------------|------------2---2|-----2---| 
--2---2---2h4----|--6---6---0------|-------4-| 
0-------2-------2|4-------4--------|---------| 
-----------------|-----------------|-0-------| 
  
OUTRO: 
  
------0-------0|------0---------|------0-------0|------0--------- 
----2-----2----|--2-------2-----|----2-----2----|--2-------2----- 
--4---------4--|----4---------4-|--4---------4--|----4---------4- 
---------------|--------2-------|---------------|--------2------- 
0--------------|0---------------|0--------------|0--------------- 
--------0------|------------0---|--------0------|------------0--- 
  
------0------0|------0-------|------0-------0|----------------|| 
----2----2----|--2-------2---|----2-----2----|----------------|| 
--4--------4--|----4--------4|--4---------4--|----------------|| 
--------------|--------2-----|---------------|----------------|| 
0-------------|0-------------|0--------------|-0--------------|| 
--------0-----|-----------0--|--------0------|----------------|| 
  
  
  
LYRICS: 
  
  
VERSE 1 
  
     I've been wand'rin' early and late, 
     From New York City to the Golden Gate. 
     And it don't look like I'll ever stop my wanderin'. 
  
VERSE 2 
  
     My daddy was an engineer, my brother drives a hack, 
     My sister takes in laundry while the baby balls the jack. 
     And it don't look like I'll ever stop my wanderin'. 
  
VERSE 3 
  
     I've been in the army, I've worked on a farm, 
     And all I've got to show is the muscle in my arm. 
     And it don't look like I'll ever stop my wanderin'. 
  
VERSE 4 
  
     My ma, she died when I was young, 
     My daddy took to stealin' and he got hung. 
     And it don't look like I'll ever stop my wanderin'. 
  
VERSE 5 
  
     Snakes in the ocean, eels in the sea, 
     I let a red-headed woman make a fool out of me. 
     And it don't look like I'll ever stop my wanderin'. 
  
VERSE 6 
  
     Well, I've been wand'rin' early and late, 
     From New York City to the Golden Gate. 
     And it don't look like I'll ever stop my wanderin'-- 
     No, it don't look like I'll ever stop my wanderin'. 
 

	  

Request the video "Wandering"  -  Send "Wandering" Ringtone to your Cell

there isn't a video lesson for this song

request
Search
auto scroll beats size up size down change color hide chords drawings
tab show chords e-chords YouTube Clip e-chords hide all tabs e-chords go to top tab