Jake Hess

home > Jake Hess > chords

You and Me Jesus Tab

Jake Hess

Difficulty: nolevelnolevel

by billynapp11

tuner correct add songbook print version text version rtf version e-mail
chordsukulelecavacokeyboardtabbassdrumsharmonicsflute Guitar Pro
chords

You and Me Jesus

	  this has a nice rhythm to it...you just have to get 
the feel of it and this song is easy...its a slow,  
swaying song(if you get what that means) if it helps 
you can sway to one side for each note except for the  
notes with a * in between them. 
*=no slight delay between the notes 

it sounds really cool to start the song by sliding  
into it...start at the 7th or 8th fret and slide  
down to the 3rd to start the riff. 


G---------------------- 
D---------------------- 
A----5----5----7---7--- 
E--3----3----5----5---- 

G------------------------------ 
D---7---7---------------------- 
A-5---5----3*3-5*5-----5----5-- 
E--------------------3----3---- 

and that is the whole song! just do that riff over  
exactly eleven times before the ending which breaks 
the pattern by only doing the 2 last 3/5's only once 
and then doing this riff: 

G------------------------------------ 
D---7---7---------------------------- 
A-5---5-----3-3-3-3-5-5-5-5----5----- 
E----------------------------3---3--- 



	  

Request the video "You and Me Jesus"  -  Send "You and Me Jesus" Ringtone to your Cell

there isn't a video lesson for this song

request
Search
auto scroll beats size up size down change color hide chords drawings
tab show chords e-chords YouTube Clip e-chords hide all tabs e-chords go to top tab