Israel Vibration

home > Israel Vib... > chords

On the rock Tab

Israel Vibration

Difficulty: ExpertExpert

tuner correct add songbook print version text version rtf version e-mail
chordsukulelecavacokeyboardtabbassdrumsharmonicsflute Guitar Pro
chords

On the rock

	  Intro:
| Cm  D#  Fm      G#  Fm          |
|---------------------------------|
|-----1---3-----------------------|
|-3-------------------------------|
|---------------------------------|


Chorus : 
|     Fm      Fm      Fm      Fm  |    Bbm     Bbm     Bbm     Bbm  |
|---------------------------------|---------------------------------|
|--1--3------------1--3----1--3---|---------------------------------|
|-3---------------3-------3-------|-----1---------------1-----1---1-|
|---------------------------------|-1-4-------------1-4-----4---4---|


Verse :
|     Cm      Cm      Cm      Cm  |    Bbm     Bbm     Bbm     Bbm  |X3
|---------------------------------|---------------------------------|
|--------------------------1--3---|---------------------------------|
|-3---3-------------------3-------|-----1---------------1-------1---|
|---------------------------------|-1-4-------------1-4-----1-4-----|

|    Bbm     Bbm      Cm      Cm  |     C#      C#      D#      D#  |
|---------------------------------|---------------------------------|
|---------------------------------|---------------------------------|
|-1---1---------1-3---3-----3-2-3-|-4---4-----------6---6-6---6-6---|
|---------------------------------|---------------------------------|
	  

Request the video "On the rock"  -  Send "On the rock" Ringtone to your Cell

there isn't a video lesson for this song

request
Full key step upFull key step up
Half key step upHalf key step up
Half key step downHalf key step down
Full key step downFull key step down
Search
auto scroll beats size up size down change color hide chords drawings
tab show chords e-chords YouTube Clip e-chords hide all tabs e-chords go to top tab