Intoxicados

home > Intoxicado... > chords

Señor Kioskero Tab

Intoxicados

Difficulty: nolevelnolevel

by tongaa

tuner correct add songbook print version text version rtf version e-mail
chordsukulelecavacokeyboardtabbassdrumsharmonicsflute Guitar Pro
chords

Señor Kioskero

	  G 
Hola Señor Kioskero 
vengo en busca 
de su dinero 
ponga las manos arriba 
y presteme mucha atención 

C 
mi familia no tiene trabajo 
y yo trabajar no quiero 
por eso ponga el dinero 
en esta bolsa 
      G 
por favor... 

G 
Señor Kiosquero... 
1)---------------------------- 
2)--5s6-6-6-6-6-6-6-6--------- 
3)--6s7-7-7-7-7-7-7-7-7s5-3--- 
4)-------------------------5--       s: Deslisar 
Kioskero, 
1)----------------------------       v: Estirar la cuerda 
2)---------------------------- 
3)---3v-----------------------   5v(7):Estirar la cuerda 
4)--5--5-3--------------------         hasta que suene la 
5)--------5-4-3---------------         nota(7) 
6)-------------6-3------------ 
Señor Kioskero... 
1)---------------------------- 
2)--5s6-6-6-6-6-6-6-6--------- 
3)--6s7-7-7-7-7-7-7-7-7s5-3--- 
4)-------------------------5-- 
Kioskero 
1)--3------------------------- 
2)---3-3s6-5-3---------------- 
3)------------5-3------------- 
4)---------------5-3---------- 
5)------------------5-3------- 
6)---------------------6s/---- 


G 
Yo no quise hacerle daño 
solo que antes 
de irme primero 
quiero llevarme el video 
que todo este asalto grabó 

       C 
y si algun día 
puedo, espero 
en la vida 
tenga mucha suerte 
si consigo ese dinero 
voy a venirselo 
a traer 

G 
Señor Kiosquero... 
1)---------------------------- 
2)--5s6-6-6-6-6-6-6-6--------- 
3)--6s7-7-7-7-7-7-7-7-7s5-3--- 
4)-------------------------5-- 

Kioskero, 
1)---------------------------- 
2)---------------------------- 
3)---3v----------------------- 
4)--5--5-3-------------------- 
5)--------5-4-3--------------- 
6)-------------6-3------------ 
Señor Kioskero... 
2)-------6-----6----6---------- 
3)--5v(7)-5v(7)-5v(7)-5v(7)-3-- 
4)---------------------------5- 


Kioskero... 


Señor Kioskero, 
no me gusta 
lo que le estoy 
haciendo, 
Pero Señor Kioskero 
yo trabajar 
no quiero 
	  

Request the video "Señor Kioskero"  -  Send "Señor Kioskero" Ringtone to your Cell

there isn't a video lesson for this song

request
Full key step upFull key step up
Half key step upHalf key step up
Half key step downHalf key step down
Full key step downFull key step down
Search
auto scroll beats size up size down change color hide chords drawings
tab show chords e-chords YouTube Clip e-chords hide all tabs e-chords go to top tab