Igor Kannário

home > Igor Kanná... > chords

Sai Da Frente Que La Vem A Zorra Tab

Igor Kannário

Difficulty: BeginnerBeginner

by SynGatesXD

tuner correct add songbook print version text version rtf version e-mail
chordsukulelecavacokeyboardtabbassdrumsharmonicsflute Guitar Pro
chords

Sai Da Frente Que La Vem A Zorra

	  
Riff 1 

e|-------------7h8-7-----------7-----| 
B|---/8---10-----------10~--8----8---| 
D|----------------------------------7| 

e|------------------------10\12-10-8-7-----7-10-8-7--| 
B|-----------7-8-10-8-9-----------------8-----------8| ( Rápido ) 
D|---7-9-10------------------------------------------| 

e|----------7h8-8-----------7------| 
B|-------8----------10-------------| 
D|---7---------------------------12| 

Acordes "swing" da musica. 

   G       C      D4/G 

   D       C      G 

(seguindo essa ordem) 
	  

Request the video "Sai Da Frente Que La Vem A Zorra"  -  Send "Sai Da Frente Que La Vem A Zorra" Ringtone to your Cell

there isn't a video lesson for this song

request
Full key step upFull key step up
Half key step upHalf key step up
Half key step downHalf key step down
Full key step downFull key step down
Search
auto scroll beats size up size down change color hide chords drawings
tab show chords e-chords YouTube Clip e-chords hide all tabs e-chords go to top tab