Ian Dury

home > Ian Dury > chords

Sex and drugs and rock 'n' roll Tab

Ian Dury

Difficulty: EasyEasy

by Bottelho

tuner correct add songbook print version text version rtf version e-mail
chordsukulelecavacokeyboardtabbassdrumsharmonicsflute Guitar Pro
chords

Sex and drugs and rock 'n' roll

	  Setting   : E-A-D-G-B-E 
 
 
E     022100 
C#m   x46654 
G#m   466444 
A     577655 
B     799877 
G     355433 
 
 
riff 1:                           
e ---------------|-------------|  
B ---------------|-------------|  
G ---------------|-------------|  
D ---------------|-----------2-|  
A -2-4-5-4-2-0---|-2-4-5-4-2---|  
E -------------3-|-------------|  
 
 
riff 2:  
e ---------------|-------------| 
B ---------------|-------------| 
G ---------------|-------------| 
D ---------------|-----------5-| 
A -2-4-5-4-2-0---|-2-4-5-4-2---|  
E -------------3-|-------------| 
 
riff 3:  
e ---------------| 
B ---------------| 
G ---------------| 
D -----------2---|  
A -2-4-5-4-2-----|  
E ---------------|  
 
riff 4:  
e ---------------| 
B ---------------| 
G ---------------| 
D -----------5---| 
A -2-4-5-4-2-----|  
E ---------------| 
 
riff 5 
e ---------------|---------------|  
B ---------------|---------------|  
G ---------------|---------------|  
D -----------2---|---------------|  
A -2-4-5-4-2-----|-2-4-5-4-2-0---|  
E ---------------|-------------3-|  
 
riff 6 
e ---------------| 
B ---------------| 
G ---------------| 
D ---------------| 
A -2-0-----------| 
E -----3-2-0-----| 
 
 
Intro:  
| riff 1  |  riff 2 | 
 
 
 
E                                riff 3	 
Sex and drugs and rock 'n' roll, 
E                                riff 4 
is all my brain and body need  
E                                riff 5 
Sex and drugs and rock 'n' roll,  
riff 6 
is very good indeed  
 
 
 
C#m             G#m      A                    B 
Keep your silly ways or throw them out the window 
C#m                G#m   A                     B 
The wisdom of your ways, I?ve been there and I know 
C#m           G#m   A                
Lots of other ways, what a jolly bad show 
   D                  B        A   G     E 
If all you ever do is business you don't like 
 
 
 
Riff 1 
 
 
 
E                                riff 3	 
Sex and drugs and rock 'n' roll, 
E                                riff 4 
Sex and drugs and rock 'n' roll,  
E                                riff 3 
Sex and drugs and rock 'n' roll,  
E                                riff 4 
Sex and drugs and rock 'n' roll,  
 
 
 
C#m          G#m      A                 B 
Every bit of clothing ought to make you pretty 
C#m             G#m      A                B 
You can cut the clothing grey it's such a pity 
C#m               G#m         A             B 
I should wear the clothing of Mister Walter Mitty 
D                               B           A     G  E 
See my tailor he?s called Simon I know it's going to fit 
 
 
 
E 
Here's a little bit of advice, you're quite welcome it is free 
 
Don't do nothing that is cut-price you know what that'll make you be 
 
They will try their tricky device, trap you with the ordinary 
 
Get your teeth into a small slice of the cake of liberty 
 
 
 
Pianosolo:  
C#m - G#m ? A - B 
C#m - G#m ? A - B 
C#m - G#m ? A - B 
D ? D ? D - A G E 
 
 
 
E                                riff 4	 
Sex and drugs and rock 'n' roll, 
E                                riff 3 
Sex and drugs and rock 'n' roll, 
E                                riff 4 
Sex and drugs and rock 'n' roll,  
E                                riff 3 
Sex and drugs and rock 'n' roll, 
E                                riff 4 
Sex and drugs and rock 'n' roll,  
 
------------------------------ bottelho@gmail.com  
 
	  

Request the video "Sex and drugs and rock 'n' roll"  -  Send "Sex and drugs and rock 'n' roll" Ringtone to your Cell

there isn't a video lesson for this song

request
Full key step upFull key step up
Half key step upHalf key step up
Half key step downHalf key step down
Full key step downFull key step down
Search
auto scroll beats size up size down change color hide chords drawings
tab show chords e-chords YouTube Clip e-chords hide all tabs e-chords go to top tab