Heroes del silencio

home > Heroes del... > chords

Deshacer el Mundo Tab

Heroes del silencio

Difficulty: ExpertExpert

by ironmejiab

tuner correct add songbook print version text version rtf version e-mail
chordsukulelecavacokeyboardtabbassdrumsharmonicsflute Guitar Pro
chords

Deshacer el Mundo

Year: 1995 - Album: Tour 2007 (2 CDs)

	  Guit. 1 
 
 
 
                                                                                            
-------------------------|------------------|-------------------|-------------------------| 
-------------------------|------------------|-------------------|-------------------------| 
----5--3--2--------------|------------------|--5----------------|----5--5--5--5--5--5--5--| 
-------------5--5--2-----|------------------|-------------------|-------------------------| 
----------------------3--|------------------|-------------------|-------------------------| 
-------------------------|------------------|-------------------|-------------------------| 
 
 
                                                                                  
-------------------------|--------------------------|---------------------------| 
-------------------------|--------------------------|---------------------------| 
--5--3--2----------------|--------------------------|-----------5--7--7--7h-5---| 
-----------5--3--2--3~---|-------------3--5--5r-5h3-|-----3/-7----------------7-| 
-------------------------|--5~-----3h5--------------|--5------------------------| 
-------------------------|--------------------------|---------------------------| 
 
 
                                                                                                   
-------------------------|---------8--10--10h8----8----------|------------8/---13----12b---------| 
----------------------5--|--6/-10--------------10---10h8-----|-------8---------------------13----| 
--7b-----7h5----5--7-----|-------------------------------10--|--9--------------------------------| 
-------------7-----------|-----------------------------------|-----------------------------------| 
-------------------------|-----------------------------------|-----------------------------------| 
-------------------------|-----------------------------------|-----------------------------------| 
 
 
                                                                                              
------------------------------------|----------------------|--------------------------------| 
------------------------------------|----------------------|--------------------------------| 
--12~---10----9---------------------|----------------------|--------------------------------| 
-------------------10~--------------|----------------------|------7--8--10--8h10h8h7--------| 
-------------------------10----8~---|--7------------7/-7h8h|--10---------------------10--8--| 
------------------------------------|----------------------|--------------------------------| 
 
 
                                                                                
------------------------|----------------------------|------------------------| 
------------------------|----------------------------|------------------------| 
---------------------7--|--5h7h5---------------------|---------------------7--| 
------------------8-----|--------8-7-----------------|------------------8-----| 
---------------8--------|-------------8--------------|---------------8--------| 
--6~-----5--6-----------|----------------8--7--6--5--|--6~-----5--6-----------| 
 
 
                                                                                    
----------------------------|------------------------|----------------------------| 
----------------------------|---------------------6--|--5-6-5---------------------| 
--5h7h5---------------------|------------------------|----------------------------| 
--------8-7-----------------|------------------7-----|--------7-7-----------------| 
-------------8--------------|--5~--------5--8--------|-------------8--7-----------| 
----------------8--7--6--5--|---------5--------------|-------------------8--6--5--| 
 
 
                                                               
------------------------|------------------------------------| 
---------------------6--|--5h6h5---5--6--8--6h6r6h5----5--6--| 
------------------------|--------7------------------7--------| 
------------------7-----|------------------------------------| 
--5~--------5--8--------|------------------------------------| 
---------5--------------|------------------------------------| 
 
 
                                                                                                 
--------------------------------------------|--------------------------------------------------| 
--11h---11--11h-10------10h-11--13h-11h-10--|------11h-10------10------------------------------| 
--------------------12----------------------|--12----------12------12h-10------10--12r-12h-10--| 
--------------------------------------------|------------------------------12------------------| 
--------------------------------------------|--------------------------------------------------| 
--------------------------------------------|--------------------------------------------------| 
 
 
                                                                                                   
--------------------------------------------|--------------10--12--13--15--13--15--13h12-----12--| 
--------------------------------------------|--10--11--13--------------------------------15------| 
------------------------------------10--12--|----------------------------------------------------| 
------------------------10--12--14----------|----------------------------------------------------| 
--13h---13--10--12--13----------------------|----------------------------------------------------| 
--------------------------------------------|----------------------------------------------------| 
 
 
                                                                     
--17--------17--17--17h18h17h15-|--17------18--18r-18--17h18h17h15-| 
--------------------------------|----------------------------------| 
--------------------------------|----------------------------------| 
--------------------------------|----------------------------------| 
--------------------------------|----------------------------------| 
--------------------------------|----------------------------------| 
 
 
                                                                                         
--17h-17r-17h-17r-17h-17r-17--------|--18r-18h-17--15----------------------------------| 
------------------------------------|------------------18--17--15----------------------| 
------------------------------------|------------------------------17--14--------------| 
------------------------------------|--------------------------------------17r-17--15--| 
------------------------------------|--------------------------------------------------| 
------------------------------------|--------------------------------------------------| 
 
 
                                                                                     
---------------------|--------------------|-------------------|--------|------------| 
--15----------3/-----|--15----------------|--------------6/---|--18----|--13--------| 
--14----------2/-----|--14----------------|--------------5/---|--17----|--14--------| 
---------------------|--------------------|-------------------|--------|------------| 
---------------------|--------------------|-------------------|--------|------------| 
---------------------|--------------------|-------------------|--------|------------| 

	  

Request the video "Deshacer el Mundo"  -  Send "Deshacer el Mundo" Ringtone to your Cell

there isn't a video lesson for this song

request
Search
auto scroll beats size up size down change color hide chords drawings
tab show chords e-chords YouTube Clip e-chords hide all tabs e-chords go to top tab