Heaven's Basement

home > Heaven's B... > chords

I Am Electric Tab

Heaven's Basement

Difficulty: ExpertExpert

by tarikike

tuner correct add songbook print version text version rtf version e-mail
chordsukulelecavacokeyboardtabbassdrumsharmonicsflute Guitar Pro
chords

I Am Electric

	  
Tuning: Drop C# 


Intro 
Guitar 1 
|-----------------------------------| 
|-----------------------------------| 
|-----------------------------------| 
|-----8---8-----7---7-----7-----7---| x2 
|-----------------------------------| 
|-4-4---4---4-4---4---4-4---4-4-----| 

Verse  
Guitar 1 
|-----------------------------------| 
|-----------------------------------| 
|-----------------------------------| 
|-----8---8-----7---7-----7-----7---| x4 
|-----------------------------------| 
|-4-4---4---4-4---4---4-4---4-4-----| 

Guitar 1 
|-----------------------------------| 
|-----------------------------------| 
|-----------------------------------| 
|-----8---8-----7---7-----7-----7---| x4 
|-----------------------------------| 
|-4-4---4---4-4---4---4-4---4-4-----| 
| 
Guitar 2 (over dubbed) 
|-----------------|     |------------| 
|-----------------|     |------------| 
|-----------------|     |------------| 
|-4-4-4-4-4-4-4-4-| x8  |-4-4-4-4-4\-| 
|-4-4-4-4-4-4-4-4-|     |-4-4-4-4-4\-| 
|-4-4-4-4-4-4-4-4-|     |-4-4-4-4-4\-| 


Pre chorus 
Guitar 1 (Tremolo picking) 
|---------------------------------------------------------| 
|---------------------------------------------------------| 
|---------------------------------------------------------| 
|---------------------------------------------------------| 
|---------------------------------------------------------| 
|-4-4-4-4-6-6-6-6-7-7-7-7-4-4-4-4-12-12-12-12-7-7-7-7-11~-| 


Chorus 
|---------------------------------------------------------------------| 
|-3-3-3-3-3-3-3-3-----------------------------------------------------| 
|-2-2-2-2-2-2-2-2-----------------------------------6-6-6-6-6-6-6-6-6-| 
|-0-0-0-0-0-0-0-0--4-4-4-4-4-4-4-4\2-2-2-2-2-2-2-2--6-6-6-6-6-6-6-6-6-| x2 
|-0-0-0-0-0-0-0-0--4-4-4-4-4-4-4-4\2-2-2-2-2-2-2-2--4-4-4-4-4-4-4-4-4-| 
|-0-0-0-0-0-0-0-0--4-4-4-4-4-4-4-4\2-2-2-2-2-2-2-2--------------------| 

|------------------------------------------------------------------| 
|-3-3-3-3-3-3-3-3--------------------------------------------------| 
|-2-2-2-2-2-2-2-2--------------------------------------------------| 
|-0-0-0-0-0-0-0-0--2-2-2-2-2-2-2-2/4-4-4-4-4-4-4-4\2-2-2-2-2-2-2-2-| 
|-0-0-0-0-0-0-0-0--2-2-2-2-2-2-2-2/4-4-4-4-4-4-4-4\2-2-2-2-2-2-2-2-| 
|-0-0-0-0-0-0-0-0--2-2-2-2-2-2-2-2/4-4-4-4-4-4-4-4\2-2-2-2-2-2-2-2-| 

|-------------| 
|-3--3--------| 
|-2--2--------| 
|-0--0--2~----| 
|-0--0--2~----| 
|-0--0--2~----| 


Interlude 
Guitar 1 
|-----------------------------------| 
|-----------------------------------| 
|-----------------------------------| 
|-----8---8-----7---7-----7-----7---| x2 
|-----------------------------------| 
|-4-4---4---4-4---4---4-4---4-4-----| 
| 
Guitar 2 (over dubbed) 
|-----------------|     |------------| 
|-----------------|     |------------| 
|-----------------|     |------------| 
|-4-4-4-4-4-4-4-4-| x4  |-4-4-4-4-4\-| 
|-4-4-4-4-4-4-4-4-|     |-4-4-4-4-4\-| 
|-4-4-4-4-4-4-4-4-|     |-4-4-4-4-4\-| 


Verse 
Guitar 1 
|-----------------------------------| 
|-----------------------------------| 
|-----------------------------------| 
|-----8---8-----7---7-----7-----7---| x4 
|-----------------------------------| 
|-4-4---4---4-4---4---4-4---4-4-----| 

Guitar 1 
|-----------------------------------| 
|-----------------------------------| 
|-----------------------------------| 
|-----8---8-----7---7-----7-----7---| x4 
|-----------------------------------| 
|-4-4---4---4-4---4---4-4---4-4-----| 
| 
Guitar 2 (over dubbed) 
|-----------------|     |------------| 
|-----------------|     |------------| 
|-----------------|     |------------| 
|-4-4-4-4-4-4-4-4-| x8  |-4-4-4-4-4\-| 
|-4-4-4-4-4-4-4-4-|     |-4-4-4-4-4\-| 
|-4-4-4-4-4-4-4-4-|     |-4-4-4-4-4\-| 


Pre chorus 
Guitar 1 (Tremolo picking) 
|---------------------------------------------------------| 
|---------------------------------------------------------| 
|---------------------------------------------------------| 
|---------------------------------------------------------| 
|---------------------------------------------------------| 
|-4-4-4-4-6-6-6-6-7-7-7-7-4-4-4-4-12-12-12-12-7-7-7-7-11~-| 


Chorus 
|---------------------------------------------------------------------| 
|-3-3-3-3-3-3-3-3-----------------------------------------------------| 
|-2-2-2-2-2-2-2-2-----------------------------------6-6-6-6-6-6-6-6-6-| 
|-0-0-0-0-0-0-0-0--4-4-4-4-4-4-4-4\2-2-2-2-2-2-2-2--6-6-6-6-6-6-6-6-6-| x2 
|-0-0-0-0-0-0-0-0--4-4-4-4-4-4-4-4\2-2-2-2-2-2-2-2--4-4-4-4-4-4-4-4-4-| 
|-0-0-0-0-0-0-0-0--4-4-4-4-4-4-4-4\2-2-2-2-2-2-2-2--------------------| 

|------------------------------------------------------------------| 
|-3-3-3-3-3-3-3-3--------------------------------------------------| 
|-2-2-2-2-2-2-2-2--------------------------------------------------| 
|-0-0-0-0-0-0-0-0--2-2-2-2-2-2-2-2/4-4-4-4-4-4-4-4\2-2-2-2-2-2-2-2-| 
|-0-0-0-0-0-0-0-0--2-2-2-2-2-2-2-2/4-4-4-4-4-4-4-4\2-2-2-2-2-2-2-2-| 
|-0-0-0-0-0-0-0-0--2-2-2-2-2-2-2-2/4-4-4-4-4-4-4-4\2-2-2-2-2-2-2-2-| 

|-------------| 
|-3--3--------| 
|-2--2--------| 
|-0--0--2~----| 
|-0--0--2~----| 
|-0--0--2~----| 


Bridge 
|------------------------| 
|------------------------| 
|------------------------| 
|------------------------| x4 
|------------------------| 
|-4--2-4--2-4--2-4-4-6-7-| 

|---------------------------------------------------| 
|---------------------------------------------------| 
|-11\----------------------11\----------------------| 
|-11\-2-4--2-4--2-4-4-6-7--11\-2-4--2-4--7-7-7--6-6-| x2 
|-9-\-2-4--2-4--2-4-4-6-7--9-\-2-4--2-4--5-5-5--4-4-| 
|-----2-4--2-4--2-4-4-6-7------2-4--2-4-------------| 


Guitar Solo 
Guitar 2 (under solo) 
|---------------------------|    |---------------------------| 
|-3--3--3-3-----------------|    |---------------------------| 
|-2--2--2-2-----------------|    |---------------------------| 
|-0--0--0-0-2-4--4-4--4-4-4-| x3 |-2-2-2-2-2-2-2-2-2-2-2-2-2-| 
|-0--0--0-0-2-4--4-4--4-4-4-|    |-2-2-2-2-2-2-2-2-2-2-2-2-2-| 
|-0--0--0-0-2-4--4-4--4-4-4-|    |-2-2-2-2-2-2-2-2-2-2-2-2-2-| 

Guitar 1 w/ octave pedal set for one octave above 
|--------------------------------12b14--12-14-12-14-12-14\--/19b21-17-19-19b\-| 
|-----------------------------------------------------------------------------| 
|-----------------------------------------------------------------------------| 
|-9b11~~~~r-p7/9\7/9\7-6------------------------------------------------------| 
|------------------------7-7/9~~----------------------------------------------| 
|-----------------------------------------------------------------------------| 


Guitar 1 
|-----------------------------------| 
|-----------------------------------| 
|-----------------------------------| 
|-----8---8-----7---7-----7-----7---| x3 
|-----------------------------------| 
|-4-4---4---4-4---4---4-4---4-4-----| 
|------------------------| 
|------------------------| 
|------------------------| 
|-----8---8-----7--------| 
|------------------------| 
|-4-4---4---4-4---/15\---| 


Chorus 
|---------------------------------------------------------------------| 
|-3-3-3-3-3-3-3-3-----------------------------------------------------| 
|-2-2-2-2-2-2-2-2-----------------------------------6-6-6-6-6-6-6-6-6-| 
|-0-0-0-0-0-0-0-0--4-4-4-4-4-4-4-4\2-2-2-2-2-2-2-2--6-6-6-6-6-6-6-6-6-| x2 
|-0-0-0-0-0-0-0-0--4-4-4-4-4-4-4-4\2-2-2-2-2-2-2-2--4-4-4-4-4-4-4-4-4-| 
|-0-0-0-0-0-0-0-0--4-4-4-4-4-4-4-4\2-2-2-2-2-2-2-2--------------------| 

|------------------------------------------------------------------| 
|-3-3-3-3-3-3-3-3--------------------------------------------------| 
|-2-2-2-2-2-2-2-2--------------------------------------------------| 
|-0-0-0-0-0-0-0-0--2-2-2-2-2-2-2-2/4-4-4-4-4-4-4-4\2-2-2-2-2-2-2-2-| 
|-0-0-0-0-0-0-0-0--2-2-2-2-2-2-2-2/4-4-4-4-4-4-4-4\2-2-2-2-2-2-2-2-| 
|-0-0-0-0-0-0-0-0--2-2-2-2-2-2-2-2/4-4-4-4-4-4-4-4\2-2-2-2-2-2-2-2-| 

|-------------| 
|-3--3--------| 
|-2--2--------| 
|-0--0--2~----| 
|-0--0--2~----| 
|-0--0--2~----| 


Outro 
Guitar 1 
|-----------------------------------| 
|-----------------------------------| 
|-----------------------------------| 
|-----8---8-----7---7-----7-----7---| x3 
|-----------------------------------| 
|-4-4---4---4-4---4---4-4---4-4-----| 
| 
Guitar 2 (over dubbed) 
|-----------------| 
|-----------------| 
|-----------------| 
|-4-4-4-4-4-4-4-4-| x6 
|-4-4-4-4-4-4-4-4-| 
|-4-4-4-4-4-4-4-4-| 

Guitar 1 
|-----------------------------------| 
|-----------------------------------| 
|-----------------------------------| 
|-----8---8-----7--4\---------------| 
|------------------4\---------------| 
|-4-4---4---4-4----4\---------------| 
| 
Guitar 2 (over dubbed) 
|----------------------| 
|----------------------| 
|----------------------| 
|-4-4-4-4-4-4-4-4--4\0-| 
|-4-4-4-4-4-4-4-4--4\0-| 
|-4-4-4-4-4-4-4-4--4\0-| 
	  

Request the video "I Am Electric"  -  Send "I Am Electric" Ringtone to your Cell

there isn't a video lesson for this song

request
e-chords
Search
auto scroll beats size up size down change color hide chords drawings
tab show chords e-chords YouTube Clip e-chords hide all tabs e-chords go to top tab