Harpa Cristã

home > Harpa Cris... > chords

Mais Perto Da Tua Cruz Tab

Harpa Cristã

Difficulty: nolevelnolevel

by gustsilva

tuner correct add songbook print version text version rtf version e-mail
chordsukulelecavacokeyboardtabbassdrumsharmonicsflute Guitar Pro
chords

Mais Perto Da Tua Cruz

	   
E|-------------8---|-8--------------8--|-----4---4---4-3-|-----------------| 
B|-------------4---|-4---11--11--11----|-11--1---1---4-4-|-6---6---6---9-6-| 
G|-----------------|-----0---0---0--8--|-0---1---1---1-1-|-6---6---6---6---| 
D|-------------6---|-6---11--11--11----|-11--------------|-6---6---6-----6-| 
A|-----------------|----------------10-|-------------3-3-|-------------8---| 
E|-------------4-4-|-4---11--11--11-11-|-11--4---4-------|-9---9---9---9---| 
 

 
E|-------------8---|-8--------------8--|-----4---4---6-8-|-9---9----------| 
B|-4-----------4---|-----11--11--11----|-11------------4-|-6---6---8---8--| 
G|-5---------------|-8---0---0---0--8--|-0---5---5---6---|---------8---8--| 
D|-6-----------6---|-----11--11--11----|-11--6---6---6-6-|-6---8---8---11-| 
A|-----------------|-11-------------10-|-----------------|----------------| 
E|-4-----------4-4-|-11--11--11--11-11-|-11--4---4---4-4-|-9---6---11--11-| 
 

 
E|-4-----------8--9-|-11------8-----|-6----------------|---------9---8-| 
B|-4----------------|-9-------4-----|-6-9--8-6-4---9-8-|-6---9-------4-| 
G|-5-----------8----|---------------|---10-8-6-5---8-8-|-6---8---6-----| 
D|----------------8-|-10--10--6---6-|-6-6--6-6-6---6-6-|-6---6-------6-| 
A|-------------11---|-11--11--------|------------------|---------10----| 
E|-4----------------|---------4---4-|-9-9--9-9-4---8-8-|-9---8---6---4-| 
 

 
E|-6-----------8--9-|-11--11--8---8-|-6--------9---8-6-|-4---4---8----6-| 
B|-4----------------|-9---9---4---4-|-6-9--8-6-6---6-6-|-4---4---4------| 
G|-------------8----|---------------|---10-8-6-----8-6-|-5---5--------6-| 
D|-5--------------8-|-10--10--6---6-|-6-6--6-6-6-------|---------6----5-| 
A|-6-----------11---|-11--11--------|------------------|-6---6---6----6-| 
E|------------------|---------4---4-|-9-9--9-9-9---9-9-|----------------| 
 

 
E|-4------------| 
B|--------------| 
G|-5------------| 
D|-6------------| 
A|--------------| 
E|-4------------| 
	  

Request the video "Mais Perto Da Tua Cruz"  -  Send "Mais Perto Da Tua Cruz" Ringtone to your Cell

there isn't a video lesson for this song

request
Search
auto scroll beats size up size down change color hide chords drawings
tab show chords e-chords YouTube Clip e-chords hide all tabs e-chords go to top tab