Greg Lake

home > Greg Lake > chords

I Believe In Father Christmas Tab

Greg Lake

Difficulty: BeginnerBeginner

by alyslima

tuner correct add songbook print version text version rtf version e-mail
chordsukulelecavacokeyboardtabbassdrumsharmonicsflute Guitar Pro
chords

I Believe In Father Christmas

	  

Intro: 

e|--10---12p10---9---10p9---7---9p7---5---7p5-----------------| 
B|------------------------------------------------------------| 
G|--11---11------9---9------7---7-----6---6-------------------| 
D|-----0-------0---0------0---0-----0---0-----0---------------| 
A|------------------------------------------------------------| 
D|------------------------------------------------------------| 


e|--3---5p3---2----3p2---0---0---0---0h2----------------------| 
B|------------------------------------------------------------| 
G|--4---4-----2----2-----0---2---2---2------------------------| 
D|----0-----0---0------0---0---0---0-----0--------------------| 
A|------------------------------------------------------------| 
D|------------------------------------------------------------| 


e|--3---5p3---2---3p2---0---0---2p0---------------------------| 
B|------------------------------------------------------------| 
G|--4---4-----2---2-----0---2---2-----------------------------| 
D|----0-----0---0-----0---0---0-----0-------------------------| 
A|------------------------------------------------------------| 
D|------------------------------------0-----------------------| 


e|--3---5p3---2---3p2---0---0---2p0---------------------------| 
B|------------------------------------------------------------| 
G|--4---4-----2---2-----0---2---2-----------------------------| 
D|----0-----0---0-----0---0---0-----0-------------------------| 
A|------------------------------------------------------------| 
D|------------------------------------0-----------------------| 

   {NOTE: This meAsure Gets only A 3 count} 

e|--2p0-----2p0-----2p0---------------------------------------| 
B|------------------------------------------------------------| 
G|--2-------2-------2-----------------------------------------| 
D|------0-------0-------0-------------------------------------| 
A|------------------------------------------------------------| 
D|--------0-------0-------0-----------------------------------| 


Verse 1: 

   G       D       Dsus2       D 

e|--3---3---2---2---0---0---0---2-----------------------------| 
B|------------------------------------------------------------| 
G|--4---4---2---2---0---0---2---2-----------------------------| 
D|----0---0---0---0---0---0---0---0---------------------------| 
A|------------------------------------------------------------| 
D|------------------------------------------------------------| 


   C       G       D     Dsus2 D 

e|--3---3---3---3---2---2---0---2-----------------------------| 
B|------------------------------------------------------------| 
G|--5---5---4---4---2---2---0---2-----------------------------| 
D|----0---0---0---0---0---0---0-----0-------------------------| 
A|------------------------------------------------------------| 
D|------------------------------------------------------------| 

I rememBer one ChristmAs morninG 
The winter's liGht AnD A DistAnt choir 

   D       A       G       D 

e|--5---5---5---5---3---3---2---2-----------------------------| 
B|------------------------------------------------------------| 
G|--7---7---6---6---4---4---2---2-----------------------------| 
D|----0---0---0---0---0---0---0---0---------------------------| 
A|------------------------------------------------------------| 
D|------------------------------------------------------------| 

The peAl of A Bell AnD the ChristmAs tree smell 

   D       G6          D 

e|--2---2---0---0---0---2---2p0-------------------------------| 
B|------------------------------------------------------------| 
G|--2---2---0---0---2---2---2---------------------------------| 
D|----0---0---0---0---0---0-----0-----------------------------| 
A|------------------------------------------------------------| 
D|--------------------------------0---------------------------| 

AnD eyes full of tinsel AnD fire 


Solo 1: 

RepeAt solo 1 over intro. 

      D        G      Dsus2  D         G       D        A 

e|-----10-9-7-9-10--7------7---------|--7-------10--9-10------| 
B|--10-----------------10-----7--10--|----10-8-----------10---| 
G|-----------------------------------|------------------------| 
D|-----------------------------------|------------------------| 
A|-----------------------------------|------------------------| 
D|-----------------------------------|------------------------| 

       G6    D      G         D             G6     A       D 

e|---------7-----------------------|--10-7--------------------| 
B|--8-7-------10--8--10--8-7-8-10--|---------8--7-8-10--10----| 
G|------9--------------------------|------------------------7-| 
D|---------------------------------|--------------------------| 
A|---------------------------------|--------------------------| 
D|---------------------------------|--------------------------| 




Solo 2: 

RepeAt solo 1 over solo 2 AnD intro. 

e|---------------------------|--------5-----------------------| 
B|---------------------------|--7-8-7----8-7-5----------------| 
G|---------------------------|------------------7-6-----------| 
D|-----4-5-4-5/7--4-5-4-5/7--|----------------------7---------| 
A|---------------------------|--------------------------------| 
D|---------------------------|--------------------------------| 


e|------------------------------|-----------------------------| 
B|------------------------------|-----------------------------| 
G|---------4--------------------|--7-4------------------------| 
D|--5-4-------7--5--7--5-4-5-7--|------5--4-5-7--7------------| 
A|------7-----------------------|-------------------5---------| 
D|------------------------------|-----------------------------| 



RepeAt solo 1 twice. 


 HArmonics in the seconD verse: 

e|------------------------------------------------------------| 
B|-----<12>------<7>------------------------------------------| 
G|------------<7>---------------------------------------------| 
D|---------<7>------------------------------------------------| 
A|------------------------------------------------------------| 
D|------------------------------------------------------------| 
 
	  

Request the video "I Believe In Father Christmas"  -  Send "I Believe In Father Christmas" Ringtone to your Cell

there isn't a video lesson for this song

request
Full key step upFull key step up
Half key step upHalf key step up
Half key step downHalf key step down
Full key step downFull key step down
Search
auto scroll beats size up size down change color hide chords drawings
tab show chords e-chords YouTube Clip e-chords hide all tabs e-chords go to top tab