F.T Island

home > F.T Island > chords

I Hope (barae) Tab

F.T Island

Difficulty: ExpertExpert

by erin1m

tuner correct add songbook print version text version rtf version e-mail
chordsukulelecavacokeyboardtabbassdrumsharmonicsflute Guitar Pro
chords

I Hope (barae)

	  Guitar solo: 

------------------------------------------------------ 
------------------------------------------------------ 
--10b12--10--8--7h8p7--------------------------------- 
---------------------------------8-8-8-8-8-------8---- 
----------------------10--8--6--------------h10------- 
------------------------------------------------------ 

---------------------------------------------11h13--15--13-11-10----------- 
-------------------------------------10--12-----------------------11--9---- 
------------------------------9--11---------------------------------------- 
----------------------11--------------------------------------------------- 
--------------11--13-----13------------------------------------------------ 
--11--13--11--------------------------------------------------------------- 

---------------------------------------------------11--13--15--16--18---- 
-------------------------------------------11--13------------------------ 
-----------------------------------12--13-------------------------------- 
------------------12-------12--14---------------------------------------- 
----------12--14------14------------------------------------------------- 
--12--14----------------------------------------------------------------- 
	  

Request the video "I Hope (barae)"  -  Send "I Hope (barae)" Ringtone to your Cell

there isn't a video lesson for this song

request
Search
auto scroll beats size up size down change color hide chords drawings
tab show chords e-chords YouTube Clip e-chords hide all tabs e-chords go to top tab