Flatt & Scruggs

home > Flatt & Sc... > chords

Dueling Banjos Tab

Flatt & Scruggs

Difficulty: ExpertExpert

tuner correct add songbook print version text version rtf version e-mail
chordsukulelecavacokeyboardtabbassdrumsharmonicsflute Guitar Pro
chords

Dueling Banjos

	  Flatt and Scruggs   
 
"Banjo tabs until breakdown" 
 
Key of A 
 
Note:  This is just the banjo portion of this song, the guitar 
       is not included. I allowed 5 empty spaces in between the banjo  
       portion that represents the guitar part.   
	 
******************************* 
 
/ =  slide up 
b = bend (up) 
 
******************************* 
 
 
D---1/2-----b2---------7-----2-2-2--7-2-----2-2-2--7-2-----2-2-2--7-2-----2-2-2--7-2----- 
B---1/2-----b2-------2-------2-2-2--7-2-----2-2-2--7-2-----2-2-2--7-2-----2-2-2--7-2----- 
G---1/2-----b2-----2---------2-2-2--7-2-----2-2-2--7-2-----2-2-2--7-2-----2-2-2--7-2----- 
D----------------------------2-2-2--7-2-----2-2-2--7-2-----2-2-2--7-2-----2-2-2--7-2----- 
G----------------------------x-x-x--7-x-----x-x-x--7-x-----x-x-x--7-x-----x-x-x--7-x----- 
 
 
 
 
D---------------------------------------------------------------------------------------- 
B--2-3-5-2-3---2----------2-3-5-2-3---2------------------2---------------2-3-5-3-2------- 
G------------4---2-4----------------4---2-4--------2-2-4---2-----2-2-2-4----------------- 
D---------------------------------------------------------------------------------------- 
G---------------------------------------------------------------------------------------- 
 
 
 
 
D----------------------------------------------- 
B----------2-3-5-3-2-------------7-8-10-8-7----- 
G--2-2-2-4---------------7-7-7-9---------------- 
D----------------------------------------------- 
G----------------------------------------------- 
 
 
 
D----------------------------------------------- 
B----------2-3-5-3-2-------------9-10-12-10-9--- 
G--2-2-2-4---------------9-9-9-11--------------- 
D----------------------------------------------- 
G----------------------------------------------- 
 
 
 
                                                  (while guitar plays) 
D--2-2-2--7-2-----2-2-2--7-2------------------------------------------------------------ 
B--2-2-2--7-2-----2-2-2--7-2-----2-3-5-2-3---2-------------------------2-3-5-2-3---2---- 
G--2-2-2--7-2-----2-2-2--7-2---------------4---2-4------2---2--------------------4---2-4 
D--2-2-2--7-2-----2-2-2--7-2------------------------------2---2------------------------- 
G--x-x-x--7-x-----x-x-x--7-x------------------------------------------------------------ 
 
 
 
 
D--------------------------------------- 
B----------2---2----------2------------- 
G--2-2-2-4---2---4--2-2-2---2-----1-----BREAKDOWN 
D-----------------------------2-4------- 
G--------------------------------------- 
 

	  

Request the video "Dueling Banjos"  -  Send "Dueling Banjos" Ringtone to your Cell

there isn't a video lesson for this song

request
Full key step upFull key step up
Half key step upHalf key step up
Half key step downHalf key step down
Full key step downFull key step down
Search
auto scroll beats size up size down change color hide chords drawings
tab show chords e-chords YouTube Clip e-chords hide all tabs e-chords go to top tab