Fito & Fitipaldis

home > Fito & Fit... > chords

Abrazado A La Tristeza Tab

Fito & Fitipaldis

Difficulty: ExpertExpert

by leanjunior

tuner correct add songbook print version text version rtf version e-mail
chordsukulelecavacokeyboardtabbassdrumsharmonicsflute Guitar Pro
chords

Abrazado A La Tristeza

	  Hola buenas, esta es la primera canción que mando 
y creo que no esta mal. La canción es muy buena y fácil 
si sabes un poquillo de arpegiar y eso. 
Esta es la versión que aparece en el disco de extrechinato y tú. 
Bueno vamos al tema. 

La cancion tiene cuatro acordes nada mas: Am Em Am Em C y D 

Am 
e/---------------3------2—2------------2/3--/ 
b/-------1-------------------------1-----------/ 
g/-----2---2--------------------------2--------/         X2 
d/---2-------2------2---------2---------------/ 
a/----------------------------------------------/ 
e/----------------------------------------------/ 

Em 
e/---------------------------------------------------/ 
b/-------------------0------------------------------/ 
g/---------0---------------2--2-----0--------------/     X2 
d/------2-----2-------------------------------------/ 
a/---2-----------2------2--------2-----------------/ 
e/----------------------------------------0-3-2-0--/ 

Estas dos partes se repiten dos veces y luego viene esto: 

C 
e/---------------------------------------------------/ 
b/-----------------0--------------------------------/ 
g/---------0------------2--2-----0-----0----------/ 
d/------2----2-----------------------------2-------/ 
a/---3----------3----3--------3-----3-------------/ 
e/--------------------------------------------------/ 

D 
e/-------------------------------------------------/ 
b/------------------0-----------------------------/ 
g/---------0--------------------------------------/ 
d/------4-----4----------7--7----5----4/5------/ 
a/---5-----------5----5--------5----5-----------/ 
e/------------------------------------------------/ 

Em 
e/-------0-----------------------------------/ 
b/-------0------0---------------------------/ 
g/-------0------------2-2----0-------------/ 
d/-------2----------------------------------/ 
a/-------2---2-----2-------0---------------/ 
e/--0----0----------------------0-3-2-0---/ 

Bueno pues eso es todo. La letra no la pongo porque ya esta 
en la otra transcripción de esta canción.jjj. 
Para dudas, sugerencias, correcciones e incluso felicitaciones 
esta es mi dirección manolitowevosfritos@hotmail.com 
¡¡Hasta otra amigooouuuss!!
	  

Request the video "Abrazado A La Tristeza"  -  Send "Abrazado A La Tristeza" Ringtone to your Cell

there isn't a video lesson for this song

request
Search
auto scroll beats size up size down change color hide chords drawings
tab show chords e-chords YouTube Clip e-chords hide all tabs e-chords go to top tab