Finch

home > Finch > chords

Letters To You acoustic Tab

Finch

Difficulty: AdvancedAdvanced

tuner correct add songbook print version text version rtf version e-mail
chordsukulelecavacokeyboardtabbassdrumsharmonicsflute Guitar Pro
chords

Letters To You acoustic

	  Drop D: D A D G B E 
 
(Intro) gtr. 1  
e|------------------------------------|----|-------------------------------------|  
B|------------------------------------|x11-|-------------------------------------|  
G|--7-----6-----9-----11-----11-------|----|--7-----6-----9-----9-----9----------|  
D|----0-----0-----0------0------0---0-|then|----0-----0-----0------0------0---0--|  
A|------0-----0-----0------0------0---|play|------0-----0-----0------0------0----|  
D|------------------------------------|----|-------------------------------------|  
 
(Intro) gtr. 2 (comes in second time gtr. 1 plays that riff)  
e|--------------------------------------------------------------------------|  
B|--------------------------------------------------------------------------|  
G|--2222222222222222--6666666666666666--7777777777777777--9999999999999999--| x2 
D|--0000000000000000--4444444444444444--5555555555555555--7777777777777777--|  
A|--0000000000000000--4444444444444444--5555555555555555--7777777777777777--|  
D|--0000000000000000--4444444444444444--5555555555555555--7777777777777777--|  
 
 
 
(Verse) gtr. 1  
e|--0000000000000000--------------------------------------------------------|  
B|--3333333333333333--------------------3333333333333333--2222222222222222--|  
G|--2222222222222222--2222222222222222--0000000000000000--2222222222222222--| x2  
D|--0000000000000000--0000000000000000--0000000000000000--2222222222222222--|  
A|--0000000000000000--4444444444444444--2222222222222222--0000000000000000--|  
D|--------------------4444444444444444--------------------------------------|  
 
(Verse) gtr 2.  
e|--------------------------------------------------------------------------|  
B|--------------------------------------------------------------------------|  
G|--2222222222222222--6666666666666666--7777777777777777--9999999999999999--| x2  
D|--0000000000000000--4444444444444444--5555555555555555--7777777777777777--|  
A|--0000000000000000--4444444444444444--5555555555555555--7777777777777777--|  
D|--0000000000000000--4444444444444444--5555555555555555--7777777777777777--|  
 
 
 
(Pre-Chorus) gtr. 1  
e|--------------------------------------------------------------------------|  
B|--------------------------------------0000000000000000--0000000000000000--|  
G|--6666666666666666--7777777777777777--7777777777777777--6666666666666666--| x2  
D|--4444444444444444--5555555555555555--7777777777777777--7777777777777777--|  
A|--4444444444444444--5555555555555555--5555555555555555--5555555555555555--|  
D|--4444444444444444--5555555555555555--------------------------------------|  
 
(Pre-Chorus) gtr. 2  
e|--------------------------------------------------------------------------|  
B|--------------------------------------0000000000000000--0000000000000000--|  
G|--6666---6666---66--7777---7777---77--7777777777777777--6666666666666666--| x2  
D|--4444---4444---44--5555---5555---55--7777777777777777--7777777777777777--|  
A|--4444---4444---44--5555---5555---55--5555555555555555--5555555555555555--|  
D|--4444---4444---44--5555---5555---55--------------------------------------|  
 
 
 
(Chorus) gtr. 1 & 2  
e|--0000000000000000--------------------0000000000000000--------------------|  
B|--3333333333333333--------------------3333333333333333--------------------|  
G|--4444444444444444--7777777777777777--2222222222222222--6666666666666666--| x2  
D|--4444444444444444--5555555555555555--0000000000000000--4444444444444444--|  
A|--2222222222222222--5555555555555555--0000000000000000--4444444444444444--|  
D|--------------------5555555555555555--------------------4444444444444444--|  
 
 
 
(Breakdown) gtr. 1  
e|-------------------------------------|  
B|-------------------------------------|  
G|--7-----6-----9-----11-----11--------| x2  
D|----0-----0-----0------0------0---0--|  
A|------0-----0-----0------0------0----|  
D|-------------------------------------|  
 
(Breakdown) gtr. 2  
e|--5555555555555555--|  
B|--5555555555555555--| Play second time  
G|--7777777777777777--| gtr. 1 plays breakdown  
D|--7777777777777777--|  
A|--------------------|  
D|--------------------|  
 
 
 
(Verse) gtr. 1  
e|--0000000000000000--------------------------------------------------------|  
B|--3333333333333333--------------------3333333333333333--2222222222222222--|  
G|--2222222222222222--2222222222222222--0000000000000000--2222222222222222--| x2  
D|--0000000000000000--0000000000000000--0000000000000000--2222222222222222--|  
A|--0000000000000000--4444444444444444--2222222222222222--0000000000000000--|  
D|--------------------4444444444444444--------------------------------------|  
 
(Verse) gtr 2.  
e|--------------------------------------------------------------------------|  
B|--------------------------------------------------------------------------|  
G|--2222222222222222--6666666666666666--7777777777777777--9999999999999999--| x2  
D|--0000000000000000--4444444444444444--5555555555555555--7777777777777777--|  
A|--0000000000000000--4444444444444444--5555555555555555--7777777777777777--|  
D|--0000000000000000--4444444444444444--5555555555555555--7777777777777777--|  
 
 
 
(Pre-Chorus) gtr. 1  
e|--------------------------------------------------------------------------|  
B|--------------------------------------0000000000000000--0000000000000000--|  
G|--6666666666666666--7777777777777777--7777777777777777--6666666666666666--| x2  
D|--4444444444444444--5555555555555555--7777777777777777--7777777777777777--|  
A|--4444444444444444--5555555555555555--5555555555555555--5555555555555555--|  
D|--4444444444444444--5555555555555555--------------------------------------|  
 
(Pre-Chorus) gtr. 2  
e|--------------------------------------------------------------------------|  
B|--------------------------------------0000000000000000--0000000000000000--|  
G|--6666---6666---66--7777---7777---77--7777777777777777--6666666666666666--| x2  
D|--4444---4444---44--5555---5555---55--7777777777777777--7777777777777777--|  
A|--4444---4444---44--5555---5555---55--5555555555555555--5555555555555555--|  
D|--4444---4444---44--5555---5555---55--------------------------------------|  
 
 
 
(Chorus) gtr. 1 & 2  
e|-0000000000000000--------------------0000000000000000--------------------|  
B|-3333333333333333--------------------3333333333333333--------------------|  
G|-4444444444444444--7777777777777777--2222222222222222--6666666666666666--| x2  
D|-4444444444444444--5555555555555555--0000000000000000--4444444444444444--|  
A|-2222222222222222--5555555555555555--0000000000000000--4444444444444444--|  
D|-------------------5555555555555555--------------------4444444444444444--|  
 
 
 
(Breakdown) gtr. 1  
e|-------------------------------------|----|--------------------------------------|  
B|-------------------------------------|-x6-|--------------------------------------|  
G|--7-----6-----9-----11-----11--------|----|--9999999999999999--7777777777777777--| x4  
D|----0-----0-----0------0------0---0--|then|--7777777777777777--5555555555555555--|  
A|------0-----0-----0------0------0----|play|--7777777777777777--5555555555555555--|  
D|-------------------------------------|----|--7777777777777777--5555555555555555--|  
 
(Breakdown) gtr. 2  
e|-------|----|--------------------------------|  
B|-------|-x2-|--------------------------------| 
G|-------|----|--7-7-7--6-6-6------------------| x8 
D|--0~~--|then|---------------7-7-7--5-5-5--4--| 
A|--0~~--|play|--------------------------------| 
D|--0~~--|----|--------------------------------| 
 
 
 
(Outro) gtr. 1 & 2  
e|-0000000000000000--------------------0000000000000000--------------------|  
B|-3333333333333333--------------------3333333333333333--------------------|  
G|-4444444444444444--7777777777777777--2222222222222222--6666666666666666--| x2  
D|-4444444444444444--5555555555555555--0000000000000000--4444444444444444--|  
A|-2222222222222222--5555555555555555--0000000000000000--4444444444444444--|  
D|-------------------5555555555555555--------------------4444444444444444--|  
 
 
 
(End) gtr. 1  
e|--0--|  
B|--3--|  
G|--4--|  
D|--4--|  
A|--2--|  
D|-----| 
 
Drop D: D A D G B E 
 
(Intro) gtr. 1  
e|------------------------------------|----|-------------------------------------|  
B|------------------------------------|x11-|-------------------------------------|  
G|--7-----6-----9-----11-----11-------|----|--7-----6-----9-----9-----9----------|  
D|----0-----0-----0------0------0---0-|then|----0-----0-----0------0------0---0--|  
A|------0-----0-----0------0------0---|play|------0-----0-----0------0------0----|  
D|------------------------------------|----|-------------------------------------|  
 
(Intro) gtr. 2 (comes in second time gtr. 1 plays that riff)  
e|--5555555555555555--|----|--------------------------------------------------------------------------|  
B|--5555555555555555--|-x2-|--------------------------------------------------------------------------|  
G|--7777777777777777--|----|--2222222222222222--6666666666666666--7777777777777777--9999999999999999--| x2  
D|--7777777777777777--|then|--0000000000000000--4444444444444444--5555555555555555--7777777777777777--|  
A|--------------------|play|--0000000000000000--4444444444444444--5555555555555555--7777777777777777--|  
D|--------------------|----|--0000000000000000--4444444444444444--5555555555555555--7777777777777777--|  
 
 
 
(Verse) gtr. 1  
e|--0000000000000000--------------------------------------------------------|  
B|--3333333333333333--------------------3333333333333333--2222222222222222--|  
G|--2222222222222222--2222222222222222--0000000000000000--2222222222222222--| x2  
D|--0000000000000000--0000000000000000--0000000000000000--2222222222222222--|  
A|--0000000000000000--4444444444444444--2222222222222222--0000000000000000--|  
D|--------------------4444444444444444--------------------------------------|  
 
(Verse) gtr 2.  
e|--------------------------------------------------------------------------|  
B|--------------------------------------------------------------------------|  
G|--2222222222222222--6666666666666666--7777777777777777--9999999999999999--| x2  
D|--0000000000000000--4444444444444444--5555555555555555--7777777777777777--|  
A|--0000000000000000--4444444444444444--5555555555555555--7777777777777777--|  
D|--0000000000000000--4444444444444444--5555555555555555--7777777777777777--|  
 
 
 
(Pre-Chorus) gtr. 1  
e|--------------------------------------------------------------------------|  
B|--------------------------------------0000000000000000--0000000000000000--|  
G|--6666666666666666--7777777777777777--7777777777777777--6666666666666666--| x2  
D|--4444444444444444--5555555555555555--7777777777777777--7777777777777777--|  
A|--4444444444444444--5555555555555555--5555555555555555--5555555555555555--|  
D|--4444444444444444--5555555555555555--------------------------------------|  
 
(Pre-Chorus) gtr. 2  
e|--------------------------------------------------------------------------|  
B|--------------------------------------0000000000000000--0000000000000000--|  
G|--6666---6666---66--7777---7777---77--7777777777777777--6666666666666666--| x2  
D|--4444---4444---44--5555---5555---55--7777777777777777--7777777777777777--|  
A|--4444---4444---44--5555---5555---55--5555555555555555--5555555555555555--|  
D|--4444---4444---44--5555---5555---55--------------------------------------|  
 
 
 
(Chorus) gtr. 1 & 2  
e|--0000000000000000--------------------0000000000000000--------------------|  
B|--3333333333333333--------------------3333333333333333--------------------|  
G|--4444444444444444--7777777777777777--2222222222222222--6666666666666666--| x2  
D|--4444444444444444--5555555555555555--0000000000000000--4444444444444444--|  
A|--2222222222222222--5555555555555555--0000000000000000--4444444444444444--|  
D|--------------------5555555555555555--------------------4444444444444444--|  
 
 
 
(Breakdown) gtr. 1  
e|-------------------------------------|  
B|-------------------------------------|  
G|--7-----6-----9-----11-----11--------| x2  
D|----0-----0-----0------0------0---0--|  
A|------0-----0-----0------0------0----|  
D|-------------------------------------|  
 
(Breakdown) gtr. 2  
e|--5555555555555555--|  
B|--5555555555555555--| Play second time  
G|--7777777777777777--| gtr. 1 plays breakdown  
D|--7777777777777777--|  
A|--------------------|  
D|--------------------|  
 
 
 
(Verse) gtr. 1  
e|--0000000000000000--------------------------------------------------------|  
B|--3333333333333333--------------------3333333333333333--2222222222222222--|  
G|--2222222222222222--2222222222222222--0000000000000000--2222222222222222--| x2  
D|--0000000000000000--0000000000000000--0000000000000000--2222222222222222--|  
A|--0000000000000000--4444444444444444--2222222222222222--0000000000000000--|  
D|--------------------4444444444444444--------------------------------------|  
 
(Verse) gtr 2.  
e|--------------------------------------------------------------------------|  
B|--------------------------------------------------------------------------|  
G|--2222222222222222--6666666666666666--7777777777777777--9999999999999999--| x2  
D|--0000000000000000--4444444444444444--5555555555555555--7777777777777777--|  
A|--0000000000000000--4444444444444444--5555555555555555--7777777777777777--|  
D|--0000000000000000--4444444444444444--5555555555555555--7777777777777777--|  
 
 
 
(Pre-Chorus) gtr. 1  
e|--------------------------------------------------------------------------|  
B|--------------------------------------0000000000000000--0000000000000000--|  
G|--6666666666666666--7777777777777777--7777777777777777--6666666666666666--| x2  
D|--4444444444444444--5555555555555555--7777777777777777--7777777777777777--|  
A|--4444444444444444--5555555555555555--5555555555555555--5555555555555555--|  
D|--4444444444444444--5555555555555555--------------------------------------|  
 
(Pre-Chorus) gtr. 2  
e|--------------------------------------------------------------------------|  
B|--------------------------------------0000000000000000--0000000000000000--|  
G|--6666---6666---66--7777---7777---77--7777777777777777--6666666666666666--| x2  
D|--4444---4444---44--5555---5555---55--7777777777777777--7777777777777777--|  
A|--4444---4444---44--5555---5555---55--5555555555555555--5555555555555555--|  
D|--4444---4444---44--5555---5555---55--------------------------------------|  
 
 
 
(Chorus) gtr. 1 & 2  
e|-0000000000000000--------------------0000000000000000--------------------|  
B|-3333333333333333--------------------3333333333333333--------------------|  
G|-4444444444444444--7777777777777777--2222222222222222--6666666666666666--| x2  
D|-4444444444444444--5555555555555555--0000000000000000--4444444444444444--|  
A|-2222222222222222--5555555555555555--0000000000000000--4444444444444444--|  
D|-------------------5555555555555555--------------------4444444444444444--|  
 
 
 
(Breakdown) gtr. 1  
e|-------------------------------------|----|--------------------------------------|  
B|-------------------------------------|-x6-|--------------------------------------|  
G|--7-----6-----9-----11-----11--------|----|--9999999999999999--7777777777777777--| x4  
D|----0-----0-----0------0------0---0--|then|--7777777777777777--5555555555555555--|  
A|------0-----0-----0------0------0----|play|--7777777777777777--5555555555555555--|  
D|-------------------------------------|----|--7777777777777777--5555555555555555--|  
 
(Breakdown) gtr. 2  
e|-------|----|--------------------------------|  
B|-------|-x2-|--------------------------------| 
G|-------|----|--7-7-7--6-6-6------------------| x8 
D|--0~~--|then|---------------7-7-7--5-5-5--4--| 
A|--0~~--|play|--------------------------------| 
D|--0~~--|----|--------------------------------| 
 
 
 
(Outro) gtr. 1 & 2  
e|-0000000000000000--------------------0000000000000000--------------------|  
B|-3333333333333333--------------------3333333333333333--------------------|  
G|-4444444444444444--7777777777777777--2222222222222222--6666666666666666--| x2  
D|-4444444444444444--5555555555555555--0000000000000000--4444444444444444--|  
A|-2222222222222222--5555555555555555--0000000000000000--4444444444444444--|  
D|-------------------5555555555555555--------------------4444444444444444--|  
 
 
 
(End) gtr. 1  
e|--0--|  
B|--3--|  
G|--4--|  
D|--4--|  
A|--2--|  
D|-----| 
 

	  

Request the video "Letters To You acoustic"  -  Send "Letters To You acoustic" Ringtone to your Cell

there isn't a video lesson for this song

request
Full key step upFull key step up
Half key step upHalf key step up
Half key step downHalf key step down
Full key step downFull key step down
Search
auto scroll beats size up size down change color hide chords drawings
tab show chords e-chords YouTube Clip e-chords hide all tabs e-chords go to top tab