Falling In Reverse

home > Falling In... > chords

Tragic Magic Tab

Falling In Reverse

Difficulty: BeginnerBeginner

by bombaXXX

tuner correct add songbook print version text version rtf version e-mail
chordsukulelecavacokeyboardtabbassdrumsharmonicsflute Guitar Pro
chords

Tragic Magic

	  

d|---------------------------------------------------------| 
A|-10----------10-11-------11-10-11------------------------| 
F|----10----10-------12-12----------12-9-5-7-9-10-5--------| 
C|-------10-----------------------------------------7--x2--| 
G|---------------------------------------------------------| 
C|---------------------------------------------------------| 
                 .     .     .     .    .    . 
d|---------------------------------------------------------| 
A|---------------------------------------------------------| 
F|---------------------------------------------------------| 
C|-0-3-8-7-xx7xx7-----------------------------------7-xxxx-| 
G|-0-3-8-7-xx5xx5------------------------7-x4-5-x4--5-xxxx-| 
C|-0-3-8-7--------0-x16-3-x16-8-x16-7-x8--------------xxxx-| 

d|---------------------------------------------------------| 
A|-10----------10-11-------11-10-11------------------------| 
F|---10----10-------12-12----------12-9-5-7-9-10-5---------| 
C|-------10-----------------------------------------7--x2--| 
G|---------------------------------------------------------| 
C|---------------------------------------------------------| 
                               .     .     .     .    . 
d|---------------------------------------------------------| 
A|---------------------------------------------------------| 
F|---------------------------------------------------------| 
C|-3--8---5--3---0-3-8-7-----------------------------------| 
G|-3--8---5--3---0-3-8-7-------------------------------7-x4| 
C|-3--8---5--3---0-3-8-7-/13s2--0-x16-3-x16-8-x16-7-x8-----| 
  . 
d|---------------------------------------------------------| 
A|--------------10----------10-11-------11-10-11-----------| 
F|----------------10----10-------12-12----------12-9-5-7---| 
C|------7-xxxx--------10-----------------------------------| 
G|-5-x4-5-xxxx---------------------------------------------| 
C|--------xxxx---------------------------------------------| 
                .       .       .       . 
d|---------------------------------------------------------| 
A|---------------------------------------------------------| 
F|-9-10-5--------------------------------------------------| 
C|--------7-x2-33-3------88-8------55-5------33-3----------| 
G|-------------33-3------88-8------55-5------33-3----------| 
C|-------------33-3-x14--88-8-x14--55-5-x14--33-3-x14-/13s2| 

    .       .       .               . ...... . .. 
d|---------------------------------------------------------| 
A|---------------------------------------------------------| 
F|---------------------------------------------------------| 
C|33-3------88-8------55-5------33-------------------------| 
G|33-3------88-8------55-5------33-------------------------| 
C|-33-3-x14--88-8-x14--55-5-x14--33--/13s2-3-333333-3-33---| 
  .. . ...... . .. .. . .. ...... . .. .. . .....  ..  
d|---------------------------------------------------------| 
A|---------------------------------------------------------| 
F|---------------------------------------------------------| 
C|-----------------------------------------------------3---| 
G|-----------------------------------------------------3---| 
C|-33-8-888888-8-88-88-5-55-555555-5-55-55-3-333333-33x3---| 
   
d|---------------------------------------------------------| 
A|---------------------------------------------------------| 
F|---------------------------------------------------------| 
C|---------------------------------------------------------| 
G|---------------------------------------------------------| 
C|-3-333333-3-33-33-8-888888-8-88-88-5-555555-5-55-55-3-33-| 
  
d|---------------------------------------------------------| 
A|-----------10------10-11-----11-10-11--------------------| 
F|-------------10--10-----12-12---------12-9-5-7-9-10-5----| 
C|-------x-3-----10-------------------------------------7x4| 
G|-------x-3-----------------------------------------------| 
C|3333-3-x-3-----------------------------------------------| 
	  

Request the video "Tragic Magic"  -  Send "Tragic Magic" Ringtone to your Cell

there isn't a video lesson for this song

request
e-chords
Search
auto scroll beats size up size down change color hide chords drawings
tab show chords e-chords YouTube Clip e-chords hide all tabs e-chords go to top tab