Falling In Reverse

home > Falling In... > chords

The Drug In Me Is You Tab

Falling In Reverse

Difficulty: ExpertExpert

by abelamin

tuner correct add songbook print version text version rtf version e-mail
chordsukulelecavacokeyboardtabbassdrumsharmonicsflute Guitar Pro
chords

The Drug In Me Is You

	  


INTRO                                      ... 
d----------------------------------------------------------------------------| 
a----------------------------------------------------------------------------| 
F----------------------------------------------------------------------------| 
C---0-------------0-88---10/---------3-----22222-----------------------------| 
G---0-------------0-88---10/000------1-----00000-----------------------------| 
C---0-------------0-88---10/000----------------------------------------------| 



d-----------------------------------------------------------------------------| 
a-----------------------------------------------------------------------------| 
F------2--3--------------2--3-------------------------------------------------| 
C--0---2--3--3-2320---0--2--3--77-55------------------------------------------| 
G--0---0--1--3-2320---0--0--1--77-55------------------------------------------| 
C--0---------3-2320---0--------77-55------------------------------------------| 

lead guitar 
d-----------------------------------------------------------------------------| 
a-----------------------------------------------------------------------------| 
F---12-14--14----12-14--14----12-14--14-12-14-12-14-12------------------------| 
C-15----------14-----------12-------------------------14----------------------| 
G-----------------------------------------------------------------------------| 
C-----------------------------------------------------------------------------| 


d-----------------------------------------------------------------------------| 
a-----------------------------------------------------------------------------| 
F---12-14--14----12-14--14----12-14-14--1414-14/12----------------------------| 
C-15----------14-----------12-------------------------------------------------| 
G---------------------------------------1212-12/10----------------------------| 
C-----------------------------------------------------------------------------| 

Verse 
..................................................................... 
d-----------------------------------------------------------------------------| 
a-----------------------------------------------------------------------------| 
F-----------------------------------------------------------------------------| 
C-----------------------------------------------------------------------------| 
G-----------------------------------------------------------------------------| 
C--0-3-2-3-2-00-3-2-3-2-0-8---3-2-3-2-7--777-5-3-2-0--------------------------| 



lead guitar 
......................................................................... 
d-----------------------------------------------------------------------------| 
a-----------------------------------------------------------------------------| 
F-----------------------------------------------------------------------------| 
C-----------------------------------------------------------------------------| 
G--8--12-10-12-10-8-8---12-10-12-8-5--12-10-12-8-7---121212-10-8-7-5----------| 
C-----------------------------------------------------------------------------| 


Pre-Chorus 
d------------------------------------------------------------------------------| 
a------------------------------------------------------------------------------| 
F------------------------------------------------------------------------------| 
C---------------------------------------------3333-2---------------------------| 
G---------------------------------------------1111-0---------------------------| 
C------------------------------------------------------------------------------| 

Chorus                     ,,(Can't you see...) 
d----------------------------------------------------------------------------| 
a----------------------------------------------------------------------------| 
F-------2--3--------2--3-----------------------------------------------------| 
C---3-0-2--3---3-0--2--3-----5/----------------------------------------------| 
G---3-0-0--1---3-0--0--1-----3/----------------------------------------------| 
C---3-0--------3-0-----------------------------------------------------------| 


lead guitar                                                            2x 
d-----------------------------------------------------------------------------| 
a-----------------------------------------------------------------------------| 
F--10101010101010999999----------77777777799999999910101010101010-------------| 
C-----------------------10101777----------------------------------------------| 
G-----------------------------------------------------------------------------| 
C-----------------------------------------------------------------------------| 

d----------------------------------------------------------------------------| 
a----------------------------------------------------------------------------| 
F-----2--3-------------------------------------------------------------------| 
C--0--2--3---33232-----------------------------------------------------------| 
G--0--0--1---33232-----------------------------------------------------------| 
C--0---------33232-----------------------------------------------------------| 


lead guitar 
d-----------------------------------------------------------------------------| 
a-----------------------------------------------------------------------------| 
F---12-14--14----12-14--14----12-14--14-121212-14-12-14-12--------------------| 
C-15----------14-----------12--------------------------------14---------------| 
G-----------------------------------------------------------------------------| 
C-----------------------------------------------------------------------------| 




Verse - first bass then you'll join 
..................................................................... 
d----------------------------------------------------------------------------| 
a----------------------------------------------------------------------------| 
F----------------------------------------------------------------------------| 
C----------------------------------------------------------------------------| 
G----------------------------------------------------------------------------| 
C--0-3-2-3-2-00-3-2-3-2-0-8---3-2-3-2-7--------------------------------------| 


After that 

First Guitar 
........................................all palm muted listen to the song for struming 1x 
d-----------------------------------------------------------------------------| 
a-----------------------------------------------------------------------------| 
F-----------------------------------------------------------------------------| 
C--0-------------------8------------------------------------------------------| 
G--0--00-00--000-000---8--88-88--777-777--------------------------------------| 
C--0--00-00--000-000---8--88-88--777-777--------------------------------------| 

........................................................................... 
d-----------------------------------------------------------------------------| 
a-----------------------------------------------------------------------------| 
F-----------------------------------------------------------------------------| 
C--0--------------------------------------------------------------------------| 
G--0--00-00--000-000----------------------------------------------------------| 
C--0--00-00--000-000----------------------------------------------------------| 


lead guitar (pick fast) 
.......................................................................p.m 
d-----------------------------------------------------------------------------| 
a-----------------------------------------------------------------------------| 
F-----------------------------------------------------------------------------| 
C--12-15141514--12-15141514----15141514---------------------------------------| 
G---------------------------13--------12--------------------------------------| 
C-----------------------------------------1514--------------------------------| 

............................................................................. 
d----------------------------------------------------------------------------| 
a----------------------------------------------------------------------------| 
F----------------------------------------------------------------------------| 
C--12-15141514-12-15141514---15141514----------------------------------------| 
G--------------------------13---------1212121212-----------------------------| 
C----------------------------------------------------------------------------| 




Chorus                     ,,(Can't you see...) 
d-----------------------------------------------------------------------------| 
a-----------------------------------------------------------------------------| 
F-----------------------------------------------------------------------------| 
C---3-0-2--3---3-0--2--3-----5/-----------------------------------------------| 
G---3-0-0--1---3-0--0--1-----3/-----------------------------------------------| 
C---3-0--------3-0------------------------------------------------------------| 


Lead guitar                                                                2x 
d-----------------------------------------------------------------------------| 
a-----------------------------------------------------------------------------| 
F--10101010101010999999----------77777777799999999910101010101010-------------| 
C-----------------------1010777-----------------------------------------------| 
G-----------------------------------------------------------------------------| 
C-----------------------------------------------------------------------------| 

Solo Rythm 
d-----------------------------------------------------------------------------| 
a-----------------------------------------------------------------------------| 
F---------3------2-2-----------7----------------------------------------------| 
C--0--2---3--3---2-2-----0--2--x--77-55---------------------------------------| 
G--0--2---1--3---0-0-----0--2--5--77-55---------------------------------------| 
C--0--2------3-----------0--2-----77-55---------------------------------------| 


SOLO 

                   T 
d-----------------22----15----17---15-------/20-18-17----------| 
a-----------15h18-----14----14---14---14-15----------20v-18----| 
F--------14---------14----14---14---14-------------------------| 
C-----15----------17----17---17---17---------------------------| 
G--17----------------------------------------------------------| 
C--------------------------------------------------------------| 

                         Pinhc harmonic 
d--/20-18-17-----------------------------------------| 
a------------20v-18------*15v*-15-15v----------------| 
F----------------------------------------------------| 
C----------------------------------------------------| 
G----------------------------------------------------| 
C----------------------------------------------------| 

harmonic part            pinch harmonic 
d--/24-22-20-----------------------------------| 
a------------23v-22----------------------------| 
F------------------------*17v*-17-17v----------| 
C----------------------------------------------| 
G----------------------------------------------| 
C----------------------------------------------| 

d----------------17---------------18------------------| 
a----------15-18----18-15---15-18---18-15-------------| 
F-------14----------------14-------------14-----------| 
C-----15-----------------------------------15---------| 
G--17----------------------------------------17-------| 
C-----------------------------------------------------| 


d-----------------20-----------------------22------------------| 
a-----------17-20---20-17-------------17-20--20-17-------------| 
F--------17--------------17---------17------------17-----------| 
C-----17-------------------17-----17----------------17---------| 
G--19------------------------19-19--------------------19-------| 
C--------------------------------------------------------------| 


d--------------20--------------------20---------------20-22---| 
a--------17-20----20-17----------------18-----------18--------| 
F------17--------------17-------17-19----19-------19----------| 
C----17------------------17--17------------19---19------------| 
G--19----------------------19-----------------20--------------| 
C-------------------------------------------------------------| 


d---------------------------18----------------21----------| 
a-------17202017--------1720--2017--------2023--2320------| 
F-18--18--------18----18----------18----21----------21----| 
C---20------------2020--------------2023------------------| 
G---------------------------------------------------------| 
C---------------------------------------------------------| 

d--------21-24-21-------22v--------------------------| 
a---20-23--------231823------------------------------| 
F----------------------------------------------------| 
C----------------------------------------------------| 
G----------------------------------------------------| 
C----------------------------------------------------| 

Harmonics 
d------------------------------15-----------------18----------| 
a----------14171714-------1417---1714---------1720--2017------| 
F---15---15--------15---15------------15----18----------18----| 
C------17------------1717---------------1719------------------| 
G-------------------------------------------------------------| 
C-------------------------------------------------------------| 


d---------18-21-18-------20v--------------------------| 
a---17-20---------20---20-----------------------------| 
F--------------------21-------------------------------| 
C-----------------------------------------------------| 
G-----------------------------------------------------| 
C-----------------------------------------------------| 


Bridge 
d------------------------------------------------------| 
a------101088-----1111-1010-----101088-----556666------| 
F------------------------------------------------------| 
C--00--7-7-55--77-8-8--7-7--88--7-7-55--55-223333------| 
G--00----------77-----------88----------55-------------| 
C--00----------77-----------88----------55-------------| 

d------------------------------------------------------| 
a------101088-----1111-1010-----101088-----------------| 
F------------------------------------------------------| 
C--00--7-7-55--77-8-8--7-7--88--7-7-55--55-77----------| 
G--00----------77-----------88----------55-77----------| 
C--00----------77-----------88----------55-77----------| 


Chorus                     ,,(Can't you see...) 
d-------------------------------------------------| 
a-------------------------------------------------| 
F-------2--3--------2--3--------------------------| 
C---3-0-2--3---3-0--2--3-----5/-------------------| 
G---3-0-0--1---3-0--0--1-----3/-------------------| 
C---3-0--------3-0--------------------------------| 


lead guitar                                                  2x 
d--------------------------------------------------------------------| 
a--------------------------------------------------------------------| 
F--10101010101010999999----------77777777799999999910101010101010----| 
C-----------------------10101777-------------------------------------| 
G--------------------------------------------------------------------| 
C--------------------------------------------------------------------| 


OUTRO 
d------------------------------------------| 
a------------------------------------------| 
F-----2--3---------------------------------| 
C--0--2--3---3--2--------------------------| 
G--0--0--1---3--2--------------------------| 
C--0---------3--2--------------------------| 


lead guitar                                          2x 
d----------------------------------------------------------| 
a----------------------------------------------------------| 
F---12-14--14----12-14--14----12-14--14-12-14-15-14-12-----| 
C-15----------14-----------12--------------------------14--| 
G----------------------------------------------------------| 
C----------------------------------------------------------| 


Harmonics 
d----------------------------------------------------------| 
a----------------------------------------------------------| 
F-----9-10-10------9-10-10-------9-10--10-9v-10-12-10-9----| 
C-12----------11--------------8-------------------------11-| 
G----------------------------------------------------------| 
C----------------------------------------------------------| 

END 
d-------------------------------| 
a-------------------------------| 
F-------------------------------| 
C--0----------------------------| 
G--0(let ring)------------------| 
C--0----------------------------| 
 
	  

Request the video "The Drug In Me Is You"  -  Send "The Drug In Me Is You" Ringtone to your Cell

there isn't a video lesson for this song

request
e-chords
Search
auto scroll beats size up size down change color hide chords drawings
tab show chords e-chords YouTube Clip e-chords hide all tabs e-chords go to top tab