Falling In Reverse

home > Falling In... > chords

Fashionably Late Tab

Falling In Reverse

Difficulty: AdvancedAdvanced

by sabrjoao

tuner correct add songbook print version text version rtf version e-mail
chordsukulelecavacokeyboardtabbassdrumsharmonicsflute Guitar Pro
chords

Fashionably Late

	  
F|-----------------------------------------------------------------| 
C|-----------------------------------------------------------------| 
G|-55--------------------------------------------------------------| 
C|-----------------------------------------------------------------| 
   1 2 3 4 1 2 3 4 1 2 3 4 1 2 3 4 1 2 3 4 1 2 3 4 1 2 3 4 1 2 3 4 

F|-----------------------------------------------------------------| 
C|-----------------------------------------------------------------| 
G|-55----------------------------------------------33--------------| 
C|-----------------------------------------------------------0-----| 
   1 2 3 4 1 2 3 4 1 2 3 4 1 2 3 4 1 2 3 4 1 2 3 4 1 2 3 4 1 2 3 4 

0:19 
F|-----------------------------------------------------------------| 
C|-----------------------------------------------------------------| 
G|-5-5-5-551-1-1-113-3-3-33--------5-5-5-551-1-1-113-3-33-3--------| 
C|-------------------------3-3-2-2-------------------------3---2---| 
   1 2 3 4 1 2 3 4 1 2 3 4 1 2 3 4 1 2 3 4 1 2 3 4 1 2 3 4 1 2 3 4 

Verse 0:28 
F|-----------------------------------------------------------------| 
C|-----------------------------------------------------------------| 
G|-----------------0-0----00-0----01-1----11-1----1----------------| 
C|-0-0----00-0----0--------------------------------3-3----33-3-----| 
   1 2 3 4 1 2 3 4 1 2 3 4 1 2 3 4 1 2 3 4 1 2 3 4 1 2 3 4 1 2 3 4 

F|-----------------------------------------------------------------| 
C|-----------------------------------------------------------------| 
G|-----------------0-0----00-0----01-1----11-1----13-3----33-3-----| 
C|-0-0----00-0----0------------------------------------------------| 
   1 2 3 4 1 2 3 4 1 2 3 4 1 2 3 4 1 2 3 4 1 2 3 4 1 2 3 4 1 2 3 4 

Pre Chorus 0:45 
F|-----------------------------------------------------------------| 
C|-----------------------------------------------------------------| 
G|-11----------------------33--33--11----------------------33--33--| 
C|-----------------33------------------------------33--------------| 
   1 2 3 4 1 2 3 4 1 2 3 4 1 2 3 4 1 2 3 4 1 2 3 4 1 2 3 4 1 2 3 4 

Chorus 0:54 
F|-----------------------------------------------------------------| 
C|-----------------------------------------------------------------| 
G|-5-5----51-1----13-3----3--------5-5----51-1----13-3----3----7-\-| 
C|-------------------------3-3-2-2-------------------------3-3-----| 
   1 2 3 4 1 2 3 4 1 2 3 4 1 2 3 4 1 2 3 4 1 2 3 4 1 2 3 4 1 2 3 4 

F|-----------------------------------------------------------------| 
C|-----------------------------------------------------------------| 
G|-5-5-5-551-1-1-113-3-3-33--------5-5-----1-1-----33--------------| 
C|-------------------------3-3-2-2---------------------------------| 
   1 2 3 4 1 2 3 4 1 2 3 4 1 2 3 4 1 2 3 4 1 2 3 4 1 2 3 4 1 2 3 4 

Interlude 1:13 
F|-----------------------------------------------------------------| 
C|-----------------------------------------------------------------| 
G|-5-5-5-551-1-1-113-3-3-33--------5-5-5-551-1-1-113-3-33-3-013013-| 
C|-------------------------3-3-2-2-------------------------3-------| 
   1 2 3 4 1 2 3 4 1 2 3 4 1 2 3 4 1 2 3 4 1 2 3 4 1 2 3 4 1 2 3 4 

Verse 1:22 
F|-----------------------------------------------------------------| 
C|-----------------------------------------------------------------| 
G|-5-5-\-\---------0-0----00-0----01-1----11-1----1------------5-\-| 
C|---------0-0----0--------------------------------3-3----33-3-----| 
   1 2 3 4 1 2 3 4 1 2 3 4 1 2 3 4 1 2 3 4 1 2 3 4 1 2 3 4 1 2 3 4 

F|-----------------------------------------------------------------| 
C|-----------------------------------------------------------------| 
G|-----------------0-0----00-0----01-1----11-1----13-3----33-3-----| 
C|-0-0----00-0----0------------------------------------------------| 
   1 2 3 4 1 2 3 4 1 2 3 4 1 2 3 4 1 2 3 4 1 2 3 4 1 2 3 4 1 2 3 4 

Pre Chorus 1:40 
F|-----------------------------------------------------------------| 
C|-----------------------------------------------------------------| 
G|-11----------------------33--33--11----------------------33------| 
C|-----------------33------------------------------33--------------| 
   1 2 3 4 1 2 3 4 1 2 3 4 1 2 3 4 1 2 3 4 1 2 3 4 1 2 3 4 1 2 3 4 

Chorus 1:50 
F|-----------------------------------------------------------------| 
C|-----------------------------------------------------------------| 
G|-5-5----51-1----13-3----3--------5-5----51-1----13-3-3--3----7-\-| 
C|-------------------------3-3-2-2-------------------------3-3-----| 
   1 2 3 4 1 2 3 4 1 2 3 4 1 2 3 4 1 2 3 4 1 2 3 4 1 2 3 4 1 2 3 4 

F|-----------------------------------------------------------------| 
C|-----------------------------------------------------------------| 
G|---------1-1-1-1-3-3-3-3-----------------1-1-1-1-3-3-3-3-5-5-5-5-| 
C|-0-0-0-0-----------------3-3-2-2-0-0-0-0-------------------------| 
   1 2 3 4 1 2 3 4 1 2 3 4 1 2 3 4 1 2 3 4 1 2 3 4 1 2 3 4 1 2 3 4 

Bridge 2:07 
F|-----------------------------------------------------------------| 
C|-----------------------------------------------------------------| 
G|-1-1-1-1-1-1-1-1---------3-3-3-3-1-1-1-1-1-1-1-1---------3---5---| 
C|-----------------3-3-3-3-------------------------3-3-3-3---------| 
   1 2 3 4 1 2 3 4 1 2 3 4 1 2 3 4 1 2 3 4 1 2 3 4 1 2 3 4 1 2 3 4 

F|-------------------------------------------------------------------------------------| 
C|-------------------------------------------------------------------------------------| 
G|-1-1-1-1-1-1-1-1---------3-3-3-3-1-1-1-1-1-1-1-1-3-3-3-3-5-5-5-5-7-7-7-7/15-15-15-15-| 
C|-----------------3-3-3-3-------------------------------------------------------------| 
   1 2 3 4 1 2 3 4 1 2 3 4 1 2 3 4 1 2 3 4 1 2 3 4 1 2 3 4 1 2 3 4 1 2 3 4 1  2  3  4 

Pre Chorus 2:27 
F|-----------------------------------------------------------------| 
C|-----------------------------------------------------------------| 
G|-11----------------------33--33--11------------------------------| 
C|-----------------33------------------------------3---------------| 
   1 2 3 4 1 2 3 4 1 2 3 4 1 2 3 4 1 2 3 4 1 2 3 4 1 2 3 4 1 2 3 4 

2:36 
F|-----------------------------------------------------------------| 
C|-----------------------------------------------------------------| 
G|-55----------------------------------------------33--------------| 
C|-----------------------------------------------------------------| 
   1 2 3 4 1 2 3 4 1 2 3 4 1 2 3 4 1 2 3 4 1 2 3 4 1 2 3 4 1 2 3 4 

Chorus 2:45 
F|-----------------------------------------------------------------| 
C|-----------------------------------------------------------------| 
G|-5-5----51-1----13-3----3--------5-5----51-1----13-3----3----7-\-| 
C|-------------------------3-3-2-2-------------------------3-3-----| 
   1 2 3 4 1 2 3 4 1 2 3 4 1 2 3 4 1 2 3 4 1 2 3 4 1 2 3 4 1 2 3 4 

F|-----------------------------------------------------------------| 
C|-----------------------------------------------------------------| 
G|---------1-1-1-1-3-3-3-3-----------------1-1-1-1-3-3-3-3-77777777| 
C|-0-0-0-0-----------------3-3-2-2-0-0-0-0-------------------------| 
   1 2 3 4 1 2 3 4 1 2 3 4 1 2 3 4 1 2 3 4 1 2 3 4 1 2 3 4 1 2 3 4 

Outro Chorus 3:03 
F|-----------------------------------------------------------------| 
C|-----------------------------------------------------------------| 
G|-5-5-5-551-1-1-113-3-3-33----------------1-1-1-1-3-3-13----------| 
C|-------------------------3-3-2-2-0-0-0-0-----------------3-3-2-2-| 
   1 2 3 4 1 2 3 4 1 2 3 4 1 2 3 4 1 2 3 4 1 2 3 4 1 2 3 4 1 2 3 4 

F|-----------------------------------------------------------------| 
C|-----------------------------------------------------------------| 
G|-55-555-511-11-1-33-333-3----------------11-11-1-33-313----------| 
C|-------------------------33-32-2-00-000-0----------------3---2---| 
   1 2 3 4 1 2 3 4 1 2 3 4 1 2 3 4 1 2 3 4 1 2 3 4 1 2 3 4 1 2 3 4  
	  

Request the video "Fashionably Late"  -  Send "Fashionably Late" Ringtone to your Cell

there isn't a video lesson for this song

request
Search
auto scroll beats size up size down change color hide chords drawings
tab show chords e-chords YouTube Clip e-chords hide all tabs e-chords go to top tab