Falling In Reverse

home > Falling In... > chords

Don't Mess With Ouija Boards Tab

Falling In Reverse

Difficulty: nolevelnolevel

by adalgomes

tuner correct add songbook print version text version rtf version e-mail
chordsukulelecavacokeyboardtabbassdrumsharmonicsflute Guitar Pro
chords

Don't Mess With Ouija Boards

	  
GuitAr 1: 

d|---------------------------------------------------------------------------| 
A|---------------------------------------------------------------------------| 
F|---------------------------------------------------------------------------| 
C|---------------------------------------------------------------5p0-5p0-5p0-| 
G|-8p0-8p0-8p0-8p0-8p0-8p0-8p0-8h10-7p0-7p0-7p0-7p0-7p0-7p0-7p0--------------| 
C|---------------------------------------------------------------------------| 

d|-------------------------------------------------|(x2) 
A|-------------------------------------------------| 
F|-------------------------------------------------| 
C|-5p0-5p0-5p0-5p0-5h7-3p0-3p0-3p0-3p0-3p0-3p0-3p0-| 
G|-------------------------------------------------| 
C|-------------------------------------------------| 

Intro: 

GuitAr 2: 
d|----------------------------------------------------------------------------| 
A|----------------------------------------------------------------------------| 
F|-----2~---5~---7~--7~-------------------------------------------------------| 
C|0~---2~---5~---7~--5~------------------------2-2---2-2--2-2---5-5---5-5-5-5-| 
G|0~---0~---3~---5~--4~------0-0---0-0--0-0----0-0---0-0--0-0---3-3---3-3-3-3-| 
C|0~-------------------------0-0---0-0--0-0-----------------------------------| 
               Verse: 
d|---------------------------------------------------------------------------| 
A|---------------------------------------------------------------------------| 
F|---------------------------------------------------------------------------| 
C|-77777777777777------------------------------------------------------------| 
G|-55555554444444--0----5---8-------12---8---7h8h10--0----5---8-------12---8-| 
C|-----------------0--0---0---0-0-0----0---0---------0--0---0---0-0-0----0---| 
   ..............     .   .   . . .    .   .            .   .   . . .    . 

d|-----------------------------------------------------------------------| 
A|-----------------------------------------------------------------------| 
F|-----------------------------------------------------------------------| 
C|----------------------------7----------5------------------7-7-7--------| 
G|---10p8p7--5----5---8-----------8---7h8---5----5---8------4-4-4--7-7-7-| 
C|-0---------5--5---5---5-5-5---5---5-------5--5---5---5-5---------7-7-7-| 
   .            .   .   . . .   .   .          .   .   . . 
d|----------------------------------------------------------------------------| 
A|----------------------------------------------------------------------------| 
F|----------------------------------------------------------------------------| 
C|-0--------------3-3-3--------0--------------3-3-3--------5--------------3-3-| 
G|-0--0-000-000--7-7-7---000-0-0--0-000-000--7-7-7---000-0-5--5-555-555--7-7--| 
C|-0--0-000-000----------000-0-0--0-000-000----------000-0-5--5-555-555-------| 
      . ... ...          ... .    . ... ...          ... .    . ... ... 
d|---------------------------------| 
A|---------------------------------| 
F|---------------------------------| 
C|--3--------5---------7-7-7-------| 
G|-7---000-0-5--5-555--4-4-4-7-7-7-| 
C|-----000-0-5--5-555--------7-7-7-| 
       ... .    . ... 

Pre-Chorus 
GuitAr 1: (PlAy throuGh out the pre-Chorus) 
d|-------------17~-----------------------------17~-------------| 
A|-----15~-------------15~-------------15~-------------15~-----| 
F|-17~-----17~-----17~-----17~-----17~-----17~-----17~-----17~-| 
C|-------------------------------------------------------------| 
G|-------------------------------------------------------------| 
C|-------------------------------------------------------------| 


Pre-Chorus 

GuitAr 2: 
d|-----------------------------------------------------|(x2) 
A|-----------------------------------------------------| 
F|-----------------------------------------------------| 
C|-5(x16)--3(x16)--------------------------------------| 
G|-3-------1-------0(x16)--4-4-4-4-4-4-4-5-5-5-5-5-5-5-| 
C|-----------------0-------4-4-4-4-4-4-4-5-5-5-5-5-5-5-| 
   .       .       .       . . . . . . . . . . . . . . 

Chorus 

GuitAr 2: (CAn't quite FiGure out GuitAr 1 on the Chorus) 
d|----------------------------------|(x2) --------| 
A|----------------------------------|     --------| 
F|-5(x8)--3(x8)---------------------|     -7~--7~-| 
C|-5------3------0(x8)--------------|     -7~--5~-| 
G|-3------1------0------4(x4)-5(x4)-|     -5~--4~-| 
C|---------------0------4-----5-----|     --------| 

d|---------------------------------------------------------------------------| 
A|---------------------------------------------------------------------------| 
F|---------------------------------------------------------------------------| 
C|---------------------------------------------------------------------------| 
G|-----------------0----5---8-------12---8---7h8h10--0----5---8-------12---8-| 
C|-----------------0--0---0---0-0-0----0---0---------0--0---0---0-0-0----0---| 
                      .   .   . . .    .   .            .   .   . . .    . 
d|-------------------------------------------------------------------| 
A|-------------------------------------------------------------------| 
F|-------------------------------------------------------------------| 
C|----------------------------7----------5---------------------------| 
G|---10p8p7--5----5---8-----------8---7h8---5----5---8---------0-000-| 
C|-0---------5--5---5---5-5-5---5---5-------5--5---5---5-5-----0-000-| 
   .            .   .   . . .   .   .          .   .   . .     . ... 
d|---------------------------------------------------------------------------| 
A|---------------------------------------------------------------------------| 
F|---------------------------------------------------------------------------| 
C|-0--------------3-3-3--------0--------------3-3-3--------5-----------------| 
G|-0--0-000-000--7-7-7---000-0-0--0-000-000--7-7-7---000-0-5----5---8--------| 
C|-0--0-000-000----------000-0-0--0-000-000----------000-0-5--5---5---5-5-5--| 
      . ... ...          ... .    . ... ...          ... .    .   .   . . . 

d|------------------------------| 
A|------------------------------| 
F|----------------------------6-| 
C|-7----------7-2-2-2-2-2-2-2---| 
G|-----8---7h8--0-0-0-0-0-0-0-4-| 
C|---5---5----------------------| 

Chorus x1 
Intro x1 

BridGe: 

d|----------------------------------------------------------------| 
A|----------------------------------------------------------------| 
F|----------------------------------------------------------------| 
C|------------------------------------------------8p7p5p0-7p5-----| 
G|-5-----------5h8-7-----------7h10-8-------------------------8p0-| 
C|---0-0-0-0-0-------0-0-0-0-0--------0-0-0-0-0-0-----------------| 
     . . . . .       . . . . .        . . . . . . 

----------------------------------------------------------------|(x3) 
----------------------------------------------------------------| 
----------------------------------------------------------------| 
------------------------------------------------8-7-5-0-7-5-----| 
-5-----------5h8-7-----------7h10-8-------------------------8-0-| 
---0-0-0-0-0-------0-0-0-0-0--------0-0-0-0-0-0-----------------| 
   . . . . .       . . . . .        . . . . . . . . . . . . . . 

d|-------------------------------------------------------------| 
A|-------------------------------------------------------------| 
F|-------------------------------------------------------------| 
C|---------------------------------------------8p7p5p0-7p5-----| 
G|-5-5-5-5--555--5-5-5-5--5-5-5-5-7-7-7-7--777-------------8p0-| 
C|-5-5-5-5--555--5-5-5-5--5-5-5-5-7-7-7-7--777-----------------| 
   . . . .  ...  . . . .  . . . . . . . .  ... 
 
	  

Request the video "Don't Mess With Ouija Boards"  -  Send "Don't Mess With Ouija Boards" Ringtone to your Cell

there isn't a video lesson for this song

request
Search
auto scroll beats size up size down change color hide chords drawings
tab show chords e-chords YouTube Clip e-chords hide all tabs e-chords go to top tab