Evanescence

home > Evanescenc... > chords

Hello Tab

Evanescence

Difficulty: BeginnerBeginner

by darkfall

tuner correct add songbook print version text version rtf version e-mail
chordsukulelecavacokeyboardtabbassdrumsharmonicsflute Guitar Pro
chords

Hello

Year: 2003 - Album: Fallen

Key:  Bm More
Hello Key FmFm
Hello Key F#mF#m
Hello Key GmGm
Hello Key G#mG#m
Hello Key AmAm(one step down)
Hello Key A#mA#m(half step down)
Hello Key BmBm(original key)
Hello Key CmCm(half step up)
Hello Key C#mC#m(one step up)
Hello Key DmDm
Hello Key D#mD#m
Hello Key EmEm
	  Evanescence - Hello 
 
Tabbed by Luís Andrade 
 
Intro: 
    Bm                                    A                  F#m        Bm 
E|-|------------------|------------------|------------------|----------------------|-| 
B|-|-----3-3-2-2-----2|-----3-3-2-2-----2|-----2-2-0-0-----0|-----2-2---3-2-2-----2|-| 
G|-|-------------4----|-------------4----|-------------2----|---------2-------4----|-| 
D|-|---3-----------4--|---3-----------4--|---2-----------2--|-------------------4--|-| 
A|-|-2----------------|-2----------------|-0----------------|---4------------------|-| 
e|-|------------------|------------------|------------------|-2--------------------|-| 
 
Bm                     A       F#m 
Playground schoolbell rings, again 
Bm                  A      F#m 
Rainclouds come to play, again 
G           F#m                  Bm 
Has no one told you she's not breathing ? 
D                Bm           Em              F#m               Bm    A    F#m     
Hello, I'm your mind, giving you someone to talk to...Hello... 
Bm                A        F#m 
If I smile and don't believe 
Bm                A              F#m 
Soon I know I'll wake from this dream 
G             F#m 
Don't try to fix me 
         Bm 
I'm not broken 
D               Bm         Em              F#m 
Hello, I'm the lie living for you so you can hide...Don't cry 
 
 
Bm     A    F#m         Bm       A    F#m 
  
 
G        F#m               Bm 
Suddenly I know I'm not sleeping 
D                 Bm                Em 
Hello, I'm still here, all that's left 
         F#m       Bm 
Of yesterday... 
 
    Bm 
E|-|--------------------|--|       E|-|--------------------|--| 
B|-|-----3-3-2-2-----2--|--|       B|-|-----3-3-2-2-----2--|--| 
G|-|--------------4-----|--|   3x  G|-|-------------4-----4|--| 
D|-|---3------------4---|--|       D|-|---3-----------4----|--| 
A|-|-2------------------|--|       A|-|-2-----------------2|--| 
e|-|--------------------|--|       e|-|--------------------|--|
 
 
 
------------------------------------------------------------------------------------
Any comments, suggestions and requests are welcome: darkfall@netmadeira.com 
 
 
Touch my tears with ur lips, touch my world with ur fingertips and we can  
have forever... Forever is our today, but who waits forever anyway? 
-------------------------------------------------------------------------------------
	  

Request the video "Hello"  -  Send "Hello" Ringtone to your Cell

there isn't a video lesson for this song

request
Full key step upFull key step up
Half key step upHalf key step up
Half key step downHalf key step down
Full key step downFull key step down
Search
auto scroll beats size up size down change color hide chords drawings
tab show chords e-chords YouTube Clip e-chords hide all tabs e-chords go to top tab