Eric Clapton

home > Eric Clapt... > chords

Malted Milk Tab

Eric Clapton

Difficulty: ExpertExpert

tuner correct add songbook print version text version rtf version e-mail
chordsukulelecavacokeyboardtabbassdrumsharmonicsflute Guitar Pro
chords

Malted Milk

Year: reco -

(Robert Johnson)

	  Intro: 

 E   +----12-12-12-12-12-12-------5-5-5-5---------------------+ 
 B   |----------------------------4-4-4-4---------------------| 
 G   |----------------------------4-4-4-4---------------------| 
 D   |-12-------11-------10-9---4---4---4---------------------| 
 A   |--------------------------------------------------------| 
 E   +--------------------------------------------------------+ 

 verse 1  
 verse 2  
 verse 3  

   then the nice solo... 

 E   +---------------------------------7-6-5------------------+ 
 B   |-----5-7b(7b)(7b)r-5---5~~-2/5 5-------8b(8b)r/5---5~~--| 
 G   |-4p6-----------------6---------------------------6------| 
 D   |--------------------------------------------------------| 
 A   |--------------------------------------------------------| 
 E   +--------------------------------------------------------+ 


 E   +-4-7-7-7--7/10-10-10--7-7-7--4--4-4--4-4----------------+ 
 B   |-5-9-9-9--9/12-12-12--9-9-9--5--5-5--5-5----5-7b(7b)(7b)| 
 G   |- ---------------------------------------/6-------------| 
 D   |--------------------------------------------------------| 
 A   |--------------------------------------------------------| 
 E   +--------------------------------------------------------+ 


 E   +----------------7-6-5---------------4--7-7-7--7/10-10-10+ 
 B   |r-5---5~~-2/5-5-------8b-8b-5---5~~-5--9-9-9--9/12-12-12| 
 G   |----6-------------------------6-------------------------| 
 D   |--------------------------------------------------------| 
 A   |--------------------------------------------------------| 
 E   +--------------------------------------------------------+ 


 E   +-7-7-7--4--4-4--4-4----------7-6-5-----------7-6----5---+ 
 B   |-9-9-9--5--5-5--5-5--2/5-5-5-------8b-----5-----/8b---8b| 
 G   |---------------------------------------/6---------------| 
 D   |--------------------------------------------------------| 
 A   |--------------------------------------------------------| 
 E   +--------------------------------------------------------+ 

                       This turnaround is the 
                       one used all over the song. 
 E   +-5--------------------7-7---6-6---5---------------------+ 
 B   |---8b(8b)-5---5~~-----6-6---5-5---4---------------------| 
 G   |------------6---------6-6---5-5---4---------------------| 
 D   |--------------------6-----5-----4-----------------------| 
 A   |--------------------------------------------------------| 
 E   +--------------------------------------------------------+            = 
          =20 


 verse 4  

   And finally, the end of the song... 

 E   +----7-10-7---------------------+ I------0---I 
 B   |-/9--------9-7b(7b)r-5---5~~---| I------0---I 
 G   |-----------------------6-------| I--(1)-----I 
 D   |-------------------------------| I---2------I 
 A   |-------------------------------| I---2------I 
 E   +-------------------------------+ I-0--------I 

	  

Request the video "Malted Milk"  -  Send "Malted Milk" Ringtone to your Cell

there isn't a video lesson for this song

request
Search
auto scroll beats size up size down change color hide chords drawings
tab show chords e-chords YouTube Clip e-chords hide all tabs e-chords go to top tab