Eric Clapton

home > Eric Clapt... > chords

Hey, Hey Tab

Eric Clapton

Difficulty: IntermediateIntermediate

tuner correct add songbook print version text version rtf version e-mail
chordsukulelecavacokeyboardtabbassdrumsharmonicsflute Guitar Pro
chords

Hey, Hey

	  Intro

e|----------------0-----9-----9-------0--0------------------| 
B|-----------8b9--0-----8-----8----8--0--0------------8b9---| 
G|--------7--7b8-----------------------------------7--7b8---| 
D|----------------------------------------------------------| 
A|-2/7--------------------------------------2/7-------------| 
E|------0----0----0--0-----0-----0----0----------0----0-----| 


e|-0-----9-----9-------0--0---------------------------------| 
B|-0-----8-----8----8--0--0---------------------------------| 
G|----------------------------------------------------------| 
D|----------------------------------------------------------| 
A|----------------------------------------------------------| 
E|-0--0-----0-----0----0------------------------------------| 


e|-------------3--2--0-----3----3---0--2--0-----------------| 
B|-------------2--2--0-----2----2---0--2--0------------8b9--| 
G|-------------2-----------2------------------------7--7b8--| 
D|----------0-----------------------------------------------| 
A|-12\2--0-----0--0--0--0--0--0---0----0-----2/7------------| 
E|------------------------------------------------0----0----| 


e|-0-----9----9--------0--0---------------------------------| 
B|-0-----8----8----8---0--0---------------------------------| 
G|-------9----9---------------------------------------------| 
D|----------------------------------------------------------| 
A|----------------------------------------------------------| 
E|-0--0----0-----0-----0------------------------------------| 


e|------------5------7--5---------3h2------2----------------| 
B|---------4-----4-------------2--------5-----5-------0-----| 
G|-----------------------------------------------0h1--------| 
D|-2/4--4-----4------4----4--2----2-------------------------| 
A|----------------------------------------------------------| 
E|-----------------------------------------------0----------| 


e|---4---0----2h0----0--0-------0---------------------------| 
B|-0---0---0------2-------------0---------------------------| 
G|------------------------0h1-------------------------------| 
D|----------------------------------------------------------| 
A|----------------------------------------------------------| 
E|------------------------0---------------------------------| 

Verso: E7  A7  E7  B7  A7  E7  B7  E7 


Final 
e|---4---0----2h0----0--0-------0---------------------------| 
B|-0---0---0------2-------------0---------------------------| 
G|------------------------0h1-------------------------------| 
D|----------------------------------------------------------| 
A|----------------------------------------------------------| 
E|------------------------0---------------------------------| 


	  

Request the video "Hey, Hey"  -  Send "Hey, Hey" Ringtone to your Cell

hey-hey-by-eric-clapton Play

there is a video lesson for this song

watch now

Full key step upFull key step up
Half key step upHalf key step up
Half key step downHalf key step down
Full key step downFull key step down
Search
auto scroll beats size up size down change color hide chords drawings
tab show chords e-chords YouTube Clip e-chords hide all tabs e-chords go to top tab