Engenheiros do Hawaii

home > Engenheiro... > chords

A Violência Travestida Faz Seu Trottoir (intro) Tab

Engenheiros do Hawaii

Difficulty: AdvancedAdvanced

by VELHO

tuner correct add songbook print version text version rtf version e-mail
chordsukulelecavacokeyboardtabbassdrumsharmonicsflute Guitar Pro
chords

A Violência Travestida Faz Seu Trottoir (intro)

	  Intro tirada por VELHO (BANDA VM"s) 

          C                                Em/B                     
e|-------------------------------------------------------------------| 
b|-------------------------------------------------------------------| 
G|-------------0-------0-------0---------------0-------0-------0-----|  2x 
D|-2h4h5-----2---2---2---2---2---2-2h4h5-----2---2---2---2---2---2---| 
A|-------2-3-------3-------3-------------0-2-------2-------2---------| 
E|-------------------------------------------------------------------| 
       F# G   A 
e|----------------------| 
b|----------------------| 
G|----------------------| 
D|-4-2-4-4-5-5-7-7-7/---| 
A|----------------------| 
E|----------------------| 

VELHO (BANDA VM's)
	  

Request the video "A Violência Travestida Faz Seu Trottoir (intro)"  -  Send "A Violência Travestida Faz Seu Trottoir (intro)" Ringtone to your Cell

there isn't a video lesson for this song

request
Full key step upFull key step up
Half key step upHalf key step up
Half key step downHalf key step down
Full key step downFull key step down
Search
auto scroll beats size up size down change color hide chords drawings
tab show chords e-chords YouTube Clip e-chords hide all tabs e-chords go to top tab