Edgar Winter Group

home > Edgar Wint... > chords

Free ride Tab

Edgar Winter Group

Difficulty: IntermediateIntermediate

by europeu

tuner correct add songbook print version text version rtf version e-mail
chordsukulelecavacokeyboardtabbassdrumsharmonicsflute Guitar Pro
chords

Free ride

	  Standard Tuning: EDGBE 
 
INTRO: 
e  ----------------------------------------- 
B  --------8-s-10--8-7---------8-7---------- 
G  --------7-s-9---7-7---------7-7-4--------  Times 4 
D  -----7--9-s-11--9-7------7--9-7-5-------- 
A  -7h9-----------------7h9--------0-------- 
E  ----------------------------------------- 
                                   A 
VERSE: 
 
e  -----------------------3-3-------------- 
B  ---------------------2-0-0-2------------ 
G  -----------------2h4---0-0-2------------  Times 4 
D  -7-7p5----7-5-2--------0-0-2------------ 
A  -------7--5-3-0--------2-2-0------------ 
E  -----------------------3-3-------------- 
             D C A        G G A 
 
Chorus: 
 
 
Play the top 3 strings of the barre chords: 
 
F# x3 
G  x3 
A  x3  ("A" is x02xxx) 
 
RIFF: 
 
e  -------------------------------------- 
B  -------------------------------------- 
G  -----2-4-2---------------------------- 
D  -2h4-------4-------------------------- 
A  -------------------------------------- 
E  -------------------------------------- 
 
THEN: 
 
F# x3 
G  x3 
D  x3  (These are all power chords.) 
 
RIFF IN D: 
 
e  -------------------------------------- 
B  -------------------------------------- 
G  -----7-9-7---------------------------- 
D  -7h9-------9-------------------------- 
A  -------------------------------------- 
E  -------------------------------------- 
 
THEN: 
 
F# x3 
G  x3 
D  x2  (Power Chords) 
 
e  -------------------------------------- 
B  -------------------------------------- 
G  -8-7-5-------------------------------- 
D  -------7------------------------------ 
A  -------------------------------------- 
E  -------------------------------------- 
 
BACK TO INTRO 

	  

Request the video "Free ride"  -  Send "Free ride" Ringtone to your Cell

there isn't a video lesson for this song

request
Full key step upFull key step up
Half key step upHalf key step up
Half key step downHalf key step down
Full key step downFull key step down
Search
auto scroll beats size up size down change color hide chords drawings
tab show chords e-chords YouTube Clip e-chords hide all tabs e-chords go to top tab