Dueling Banjos

home > Dueling Ba... > chords

Dueling Banjos Tab

Dueling Banjos

Difficulty: BeginnerBeginner

by glauciaregi

tuner correct add songbook print version text version rtf version e-mail
chordsukulelecavacokeyboardtabbassdrumsharmonicsflute Guitar Pro
chords

Dueling Banjos

	  #Section 1 

Guitar 1 
e|-------------------------------|\ 
B|---------------0--1--3--1--0---| \ 
G|---0--0--0--2------------------|  \ 
D|-------------------------------|   \ 
A|-------------------------------|    \ 
E|-------------------------------|     \ 
                                        \2x 
Guitar 2                                / 
e|-------------------------------|     / 
B|-------------------------------|    / 
G|-------------------------------|   / 
D|---------------------0---------|  / 
A|------------0--2--3-----3--2---| / 
E|---3--3--3---------------------|/ 

Guitar 1 
e|---------------0--1--3--1--0---| 
B|---1--1--1--3------------------| 
G|-------------------------------| 
D|-------------------------------| 
A|-------------------------------| 
E|-------------------------------| 

Guitar 2 
e|------------------------------| 
B|------------------------------| 
G|---------------------0--------| 
D|------------0--2--3-----3--2--| 
A|---3--3--3--------------------| 
E|------------------------------| 

Guitar 1 
e|------------------------------| 
B|---------------0--1--3--1--0--| 
G|---0--0--0--2-----------------| 
D|------------------------------| 
A|------------------------------| 
E|------------------------------| 

Guitar 2 
e|------------------------------| 
B|------------------------------| 
G|------------------------------| 
D|---------------------0--------| 
A|------------0--2--3-----3--2--| 
E|---3--3--3--------------------| 


Guitar 1 
e|------------0--2--3--5--3--2--| 
B|---3--3--3--------------------| 
G|------------------------------| 
D|------------------------------| 
A|------------------------------| 
E|------------------------------| 

Guitar 2 
e|------------------------------| 
B|------------------------------| 
G|------------------0--2--0-----| 
D|---0--0--0--2--4-----------4--| 
A|------------------------------| 
E|------------------------------| 

Guitar 1 
e|-------------------------------|\ 
B|-3--3--3--5--3---3--3--3--5--3-| \ 
G|-4--4--4--5--4---4--4--4--5--4-|  \ 
D|-------------------------------|   \ 
A|-------------------------------|    \ 
E|-------------------------------|     \ 
                                        \ 
Guitar 2                                /2x 
e|-------------------------------|     / 
B|-0--0--0--1--0---0--0--0--1--0-|    / 
G|-0--0--0--0--0---0--0--0--0--0-|   / 
D|-0--0--0--2--0---0--0--0--2--0-|  / 
A|-------------------------------| / 
E|-------------------------------|/ 

Guitar 1 
e|------------------------------|\ 
B|--0--1--3--0--1-----0---------| \ 
G|-----------------2-----0--2---|  \ 
D|------------------------------|   \ 
A|------------------------------|    \ 
E|------------------------------|     \ 
                                       \2x 
Guitar 2                               / 
e|------------------------------|     / 
B|------------------------------|    / 
G|------------------------------|   / 
D|---------0--------------------|  / 
A|---2--3-----2--3--0--2-----0--| / 
E|------------------------3-----|/ 

Guitar 1 
e|---------------------------| 
B|---------------0-----0-----| 
G|------0--0--2-----0-----2--| 
D|---0-----------------------| 
A|---------------------------| 
E|---------------------------| 

Guitar 2 
e|-----------------------------| 
B|-----------------------------| 
G|-----------------------------| 
D|-----------------------------| 
A|-----------------------------| 
E|--0--3--3--5--7--3--3--5--7--| 

#Section 2 

C:			      G: 
e|-----------------------|    e|---------------------| 
B|---------1--------1--1-|    B|----------0--------0-| 
G|-----------------------|    G|-------0--------0----| 
D|------2--------2-------|    D|---------------------| 
A|---3--------3----------|    A|---------------------| 
E|-----------------------|    E|----3--------3-------| 

D: 
e|------------------------| 
B|---------3--------3--3--| 
G|------2--------2--------| 
D|---0--------0-----------| 
A|------------------------| 
E|------------------------| 

Guitar 2 
-----C-----C-----G-----G-----D-----D-----G-----G---- 

e|--------------------------------------------------| 
B|--------------------------------------------------| 
G|--------------------------------------------------| 
D|--------------------------------------------------| 
A|--3-----3--3-----5-----5--5--0--5--0-----2-----2--| 
E|-----3--------3-----3-----------------3-----3-----| 

#Section 1 

#Section 3 

C:			     G: 
e|-------------0----------|  e|----------------------| 
B|----------1-----1-------|  B|-------------0--------| 
G|-------0-----------0----|  G|----------0-----0-----| 
D|----2-----------------2-|  D|-------0-----------0--| 
A|-3----------------------|  A|----2----------------2| 
E|------------------------|  E|-3--------------------| 

D: 
e|--------------2-----------| 
B|-----------3-----3--------| 
G|--------2-----------2-----| 
D|-----0-----------------0--| 
A|--0-----------------------| 
E|--------------------------| 

Guitar 2 
-----C-----C-----G-----G-----D-----D-----G-----G---- 

e|--------------------------------------------------| 
B|--------------------------------------------------| 
G|--------------------------------------------------| 
D|--------------------------------------------------| 
A|--3-----3--3-----5-----5--5--0--5--0-----2-----2--| 
E|-----3--------3-----3-----------------3-----3-----| 

#Section 4 

e|----------------------| 
B|----------------------| 
G|----------------------| 
D|----------------------| 
A|----------------------| 
E|-----3--3--3--3-3-----| 

#Section 2
	  

Request the video "Dueling Banjos"  -  Send "Dueling Banjos" Ringtone to your Cell

there isn't a video lesson for this song

request
e-chords
Search
auto scroll beats size up size down change color hide chords drawings
tab show chords e-chords YouTube Clip e-chords hide all tabs e-chords go to top tab