Dragon Ball Z

home > Dragon Bal... > chords

Música De Abertura Tab

Dragon Ball Z

Difficulty: BeginnerBeginner

by lucicamargo

tuner correct add songbook print version text version rtf version e-mail
chordsukulelecavacokeyboardtabbassdrumsharmonicsflute Guitar Pro
chords

Música De Abertura

	  DRAGON BALL Z OPENING 
	 
E|---------------------------------------------------------------------------- 
a|---------------------------------------------------------------------------- 
d|-5~7----------------------------------------------------------------------- 
g|------5-7-7-7--9-9/\\/--7--5-5--7-7~~--7-----------------5-5--7-7------- 
b|---------------------------------------------6~10-8--6-5------------------ 
e|----------------------------------------------------------------------------- 

|---------------------------------------------------------------------------- 
|---------------------------------------------------------------------------- 
|-5~7----------------------------------------------------------------------- 
|------5-7-7-7--9-9/\\/--7--5-5--7-7~~--7-----------------5-5--7-7------- 
|---------------------------------------------6~10-8--6-5------------------ 
|----------------------------------------------------------------------------- 

|------------------------------------------------------------------------------ 
|------------------------------------------------------------------------------ 
|------------------------------------------------------------------------------ 
|----------------------------------10----------------------------------------- 
|-10--8--13-11-10--8-8--10-10-----8-10~~--10--8--13-11-10--8-8--10-- 
|------------------------------------------------------------------------------ 

|------------------------------------------------------------------------------ 
|------------------------------------------------------------------------------ 
|------------------------------------------------------------------------------ 
|-----9-10---------------------------------------------------------14-14----- 
|-10-------8-10/\\/-8-10~~18-17-18/17--15--13-13--15-15-13------------- 
|------------------------------------------------------------------------------ 

|---------------------------------------------------------------------------------- 
|--------------------------------------------------------------------------------- 
|--------------------------------------------------------------------------------- 
|--------------------------14-14------------------------------------------------- 
|-18-17-18/17--15--13----------13-15-15~~-15-15-18-18--15-15-18-18-15- 
|---------------------------------------------------------------------------------- 


|---------------------------------------------------------------------------------- 
|---------------------------------------------------------------------------------- 
|---------------------------------------------------------------------------------- 
|-------------------------------------------------------14-14-14---------14-14- 
|-17-17--13-13--17-17-13---18-17-18/17--15--13-------------13-13---------- 
|---------------------------------------------------------------------------------- 

|----------------------------------------------------------------------------------- 
|----------------------------------------------------------------------------------- 
|----------------------------------------------------------------------------------- 
|------------------14-13-12--9-10\\----------------------------------------------- 
|-17-18--15--13------------------------------------------------------------------- 
|------------------------------------------------------------------------------------ 
	  

Request the video "Música De Abertura"  -  Send "Música De Abertura" Ringtone to your Cell

there isn't a video lesson for this song

request
e-chords
Search
auto scroll beats size up size down change color hide chords drawings
tab show chords e-chords YouTube Clip e-chords hide all tabs e-chords go to top tab