Disturbed

home > Disturbed > chords

Stupify Tab

Disturbed

Difficulty: ExpertExpert

tuner correct add songbook print version text version rtf version e-mail
chordsukulelecavacokeyboardtabbassdrummharmonicsflute Guitar Pro
chords

Stupify

Year: 2000 - Album: The Sickness

	  Tabbed by: c0z420 
Email: coz200059@hotmail.com 
Tuning: C# G# C# F# A# D# 
 
I saw disturbed play at the rave a couple of weeks ago, 
wow, they kick a$$ in concert, dont pass them up.  Anyways, 
Heres another version of Stupify. 
 
Intro/Chorus      
D|--------------------------------|--------------------------------| 
A|--------------------------------|--------------------------------| 
F|--------------------------------|--------------------------------| 
C|8-----0-----0-----0-----3-------|8-----0-----0-------------------| 
G|8-----0-0-0-0-----0-0-0-3-0-0-0-|8-----0-0-0-0-----0-0-0-3h6-0-0-| 
C|8-----0-0-0-0-----0-0-0-3-0-0-0-|8-----0-0-0-0-----0-0-0-----0-0-| 
pm      .....       .....   .....        .....       .....     ... 
 
Verse:  
D|------------------------6-6-8-8-|----------------------------------| 
A|------------------6-6-6---------|------------------------4-4--3-3--| 
F|--------------------------------|------------------2-2-2-----------| 
C|--------------------------------|----------------------------------| 
G|0-----0-----0-------------------|0-----0-----0---------------------| 
C|0-----0-----0-------------------|0-----0-----0---------------------| 
pm................                ..................       
 
Fill 1:| 
D|------------------------6-6-8-8-|------------------5-5-5-5-5-5-5-| 
A|------------------6-6-6---------|------------------4-4-4-4-4-4-4-| 
F|--------------------------------|------------------2-2-2-2-2-2-2-| 
C|--------------------------------|--------------------------------| 
G|0-----0-----0-------------------|0-----0-----0-------------------| 
C|0-----0-----0-------------------|0-----0-----0-------------------| 
pm..............                  ................................ 
        
Fill 2: 
D|-------------------------------------| 
A|-------------------------------------| 
F|-------------------------------------| 
C|------------------x-x-x-x-x-x--------| 
G|0-----0-----0-----x-x-x-x-x-x--------| 
C|0-----0-----0-----0-0-0-0-0-0--------| 
pm.................................... 
 
 
Fill 3: 
D|--------------------| 
A|--------------------| 
F|--------------------| 
C|0---------(0)-------| 
G|0---------(0)-------| 
C|0---------(0)-------| 
                                                              
 
D|-------------------------------------------------------------------| 
A|-------------------------------------------------------------------| 
F|-------------------------------------------------------------------| 
C|-(0)------------------------------(0)------------------------------| 
G|-(0)------------------------------(0)--------------------------0-0-| 
C|-(0)------------------------------(0)--------------------------0-0-| 
pm                                                               ... 
 
Verse 2: 
F|--------------------------------|------------------5-5-5-5-5-5-5-| 
A|--------------------------------|------------------4-4-4-4-4-4-4-| 
F|--------------------------------|------------------2-2-2-2-2-2-2-| 
C|--------------------------------|--------------------------------| 
G|0-----0-----0-----0-------------|0-----0-----0-------------------| 
C|0-----0-----0-----0-------------|0-----0-----0-------------------| 
pm................................................................... 
 
 
Interlude Riff: With sitar effect(egyptian Riff) 
D|--------------------------------||--------------------------------| 
A|*------------------------------*||--------------------------------| 
F|*-----7-----------8---------8--*||------7-------------------------| 
C|0-----------0-----------0-------||0-------------------------------| 
G|--------------------------------||--------------------------------| 
C|--------------------------------||------------0-------------------| 
 
Bridge: 
D|--------------------------------|--------------------------------| 
A|--------------------------------|--------------------------------| 
F|--------------------------------|--------------------------------| 
C|0-----3-----0-----3-----0---1---|0-----3-----0-----3-----0---1-0-| 
G|0-----3-----0-----3-----0---1---|0-----3-----0-----3-----0---1-0-| 
C|0-----3-----0-----3-----0---1---|0-----3-----0-----3-----0---1-0-| 
 
  w/wah pedal 
D|--------------------------------|--------------------------------| 
A|--------------------------------|--------------------------------| 
F|--------------------------------|--------------------------------| 
C|0-----3-----0-----3-----0---1---|0-----3-----0-----3-----0-1-1-0-| 
G|0-----3-----0-----3-----0---1---|0-----3-----0-----3-----0-1-1-0-| 
C|0-----3-----0-----3-----0---1---|0-----3-----0-----3-----0-1-1-0-| 
 
Chorus to... 
Outro: 
D|--------------------------------| 
A|--------------------------------| 
F|--------------------------------| 
C|------------------------1h3-----| 
G|0-0---0-0---0-0---0-0-0-1h3-0-0-| 
C|0-0---0-0---0-0---0-0-0-1h3-0-0-| 
PM.............................. 
 
D|--------------------------------| 
A|--------------------------------| 
F|--------------------------------| 
C|0-0---0-0---0-0---------1h3-----| 
G|0-0---0-0---0-0---0-0-0-1h3-0-0-| 
C|0-0---0-0---0-0---0-0-0-1h3-0-0-| 
pm.............................. 
 
 
End with: 
D|--------------------------------| 
A|--------------------------------| 
F|--------------------------------| 
C|1-0---------1-0-----------------| 
G|1-0---------1-0-----------------| 
C|1-0---------1-0-----------------| 
 
 
Thats about it. 
	  

Request the video "Stupify"  -  Send "Stupify" Ringtone to your Cell

there isn't a video lesson for this song

request
e-chords
Search
auto scroll beats size up size down change color hide chords drawings
tab show chords e-chords YouTube Clip e-chords hide all tabs e-chords go to top tab