Dimmu Borgir

home > Dimmu Borg... > chords

Entrance Tab

Dimmu Borgir

Difficulty: nolevelnolevel

tuner correct add songbook print version text version rtf version e-mail
chordsukulelecavacokeyboardtabbassdrumsharmonicsflute Guitar Pro
chords

Entrance

	  Tuning: standard 
 
Marking: 
 
let ring = l 
palm mute = ..... 
 
 
Riff 1: 
|------------------------------------------------------| 
|------------------------------------------------------| 
|------------------------------------------------------| 
|---------------------7-7777--10-10101010--10-10101010-| 
|-7-7777--7-7777-7-7--5-5555--8--8-8-8-8---8--8-8-8-8--| 
|-5-5555--5-5555-5-5-----------------------------------| 
    ....    ....   .    ....     . . . .      . . . . 
 
 
Riff 2: 
|-------------| 
|-------------| 
|-------------| 
|-----7---10--| 
|-7---5---8---| 
|-5-----------| 
  l   l   l 
 
 
...keyboard section... 
 
 
Riff 3: 
|------------| 
|------------| 
|------------| 
|-5-----9----| 
|-3-----7----| 
|------------| 
  l     l 
 
 
Fill 1: 
|------------------| 
|------------------| 
|------------------| 
|--9---5---9--7----| 
|--7---3---7--5----| 
|------------------| 
 
 
Riff 4: 
|-----------------------------------------------------| 
|-----------------------------------------------------| 
|-----------------------------------------------------| 
|-----------------------------------------------------| 
|-777777777777-333333333-777-555555555555555555555555-| 
|-----------------------------------------------------| 
  ............ ......... ... ........................ 
 
 
Riff 5: 
|------------------------| 
|------------------------| 
|------------------------| 
|----5--9--7---7-9-10----| 
|-7--3--7--5---5-7-8-----| 
|-5----------------------| 
  l            . . . 
 
 
Riff 6:                                          Fill 2: 
|----------------------------------------------| |-------------| 
|----------------------------------------------| |-------------| 
|----------------------------------------------| |-------------| 
|----------------5-55-5-55-5--9-7-77-7-77-7-7--| |-7-9-10------| 
|-7-77-7-77-7-7--3-33-3-33-3--7-5-55-5-55-5-5--| |-5-7-8-------| 
|-5-55-5-55-5-5--------------------------------| |-------------| 
    ..   ..   .    ..   ..        ..   ..   . 
 
 
GUITAR 2: 
|---------------------| 
|---------------------| 
|---------------------| 
|---------------------| 
|------8-7-5-7-5------| 
|-5-------------------| 
  l            l 
 
              >>> All suggestions & corrections are welcome <<< 
 

	  

Request the video "Entrance"  -  Send "Entrance" Ringtone to your Cell

there isn't a video lesson for this song

request
Search
auto scroll beats size up size down change color hide chords drawings
tab show chords e-chords YouTube Clip e-chords hide all tabs e-chords go to top tab