Corinhos Evangélicos

home > Corinhos E... > chords

A Cristo Coroai Tab

Corinhos Evangélicos

Difficulty: nolevelnolevel

by HELON

tuner correct add songbook print version text version rtf version e-mail
chordsukulelecavacokeyboardtabbassdrumsharmonicsflute Guitar Pro
chords

A Cristo Coroai

	                                 


1   |   |   |   |  |   |   |   |   |   |   |   |   |   |   |   |   |   |   |   |   
E |--------------|---------------|-8---7-------7-|---------------|-0-------3---5-| 
B |--------------|-------------8-|---------10----|-8-----------6-|-----6---------| 
G |--------------|---------------|---------------|---------------|---------------| 
D |--------------|---------------|---------------|---------------|---------------| 
A |--------------|---------------|---------------|---------------|---------------| 
E |--------------|---------------|---------------|---------------|---------------| 



6   |   |   |   |   |   |   |   |   |   |   |   |   |   |   |   |    
E |---------------|---------3---3-|-5---5---7---8-|-10--12---------| 
B |-3-----------3-|-5---6---------|---------------|---------10--10-| 
G |---------------|---------------|---------------|----------------| 
D |---------------|---------------|---------------|----------------| 
A |---------------|---------------|---------------|----------------| 
E |---------------|---------------|---------------|----------------| 



10  |   |   |   |   |   |   |   |    |   |   |   |   |   |   |   |   
E |---------------|-12--10--8---10-|-7-------------|-8---5---------| 
B |-8-----------8-|----------------|-------------8-|---------8-----| 
G |---------------|----------------|---------------|-------------6-| 
D |---------------|----------------|---------------|---------------| 
A |---------------|----------------|---------------|---------------| 
E |---------------|----------------|---------------|---------------| 



14  |   |   |   |   |   |   |   |   |   |   |   |    |   |   |   |   
E |---------------|-----5-------8-|-7---10--8---12-|-12--10--8---7-| 
B |-6-----------8-|-5-------8-----|----------------|---------------| 
G |---------------|---------------|----------------|---------------| 
D |---------------|---------------|----------------|---------------| 
A |---------------|---------------|----------------|---------------| 
E |---------------|---------------|----------------|---------------| 



18  |   |   |   |   |   |   |   |   |   |   |   |   |   |   |   |   |   |   |   |   
E |-8-------------|-8---7-------7-|---------------|-0-------3---5-|---------------| 
B |-------------8-|---------10----|-8-----------6-|-----6---------|-3-----------3-| 
G |---------------|---------------|---------------|---------------|---------------| 
D |---------------|---------------|---------------|---------------|---------------| 
A |---------------|---------------|---------------|---------------|---------------| 
E |---------------|---------------|---------------|---------------|---------------| 



23  |   |   |   |   |   |   |   |   |   |   |   |    |   |   |   |   
E |---------3---3-|-5---5---7---8-|-10--12---------|---------------| 
B |-5---6---------|---------------|---------10--10-|-8-----------8-| 
G |---------------|---------------|----------------|---------------| 
D |---------------|---------------|----------------|---------------| 
A |---------------|---------------|----------------|---------------| 
E |---------------|---------------|----------------|---------------| 



27  |   |   |   |    |   |   |   |   |   |   |   |   |   |   |   |   
E |-12--10--8---10-|-7-------------|-8---5---------|---------------| 
B |----------------|-------------8-|---------8-----|-6-----------8-| 
G |----------------|---------------|-------------6-|---------------| 
D |----------------|---------------|---------------|---------------| 
A |----------------|---------------|---------------|---------------| 
E |----------------|---------------|---------------|---------------| 



31  |   |   |   |   |   |   |   |    |   |   |   |   |   |   |   |   
E |-----5-------8-|-7---10--8---12-|-12--10--8---7-|-8-------------| 
B |-5-------8-----|----------------|---------------|-------------8-| 
G |---------------|----------------|---------------|---------------| 
D |---------------|----------------|---------------|---------------| 
A |---------------|----------------|---------------|---------------| 
E |---------------|----------------|---------------|---------------| 



35  |   |   |   |   |   |   |   |   |   |   |   |   |   |   |   |   |   |   |   |   
E |-8---7-------7-|---------------|-0-------3---5-|---------------|---------3---3-| 
B |---------10----|-8-----------6-|-----6---------|-3-----------3-|-5---6---------| 
G |---------------|---------------|---------------|---------------|---------------| 
D |---------------|---------------|---------------|---------------|---------------| 
A |---------------|---------------|---------------|---------------|---------------| 
E |---------------|---------------|---------------|---------------|---------------| 



40  |   |   |   |   |   |   |   |    |   |   |   |   |   |   |   |    
E |-5---5---7---8-|-10--12---------|---------------|-12--10--8---10-| 
B |---------------|---------10--10-|-8-----------8-|----------------| 
G |---------------|----------------|---------------|----------------| 
D |---------------|----------------|---------------|----------------| 
A |---------------|----------------|---------------|----------------| 
E |---------------|----------------|---------------|----------------| 



44  |   |   |   |   |   |   |   |   |   |   |   |   |   |   |   |   
E |-7-------------|-8---5---------|---------------|-----5-------8-| 
B |-------------8-|---------8-----|-6-----------8-|-5-------8-----| 
G |---------------|-------------6-|---------------|---------------| 
D |---------------|---------------|---------------|---------------| 
A |---------------|---------------|---------------|---------------| 
E |---------------|---------------|---------------|---------------| 



48  |   |   |   |    |   |   |   |   |   |   |   |   |   |   |   |   
E |-7---10--8---12-|-12--10--8---7-|-8-------------|-8---7-------7-| 
B |----------------|---------------|-------------8-|---------10----| 
G |----------------|---------------|---------------|---------------| 
D |----------------|---------------|---------------|---------------| 
A |----------------|---------------|---------------|---------------| 
E |----------------|---------------|---------------|---------------| 



52  |   |   |   |   |   |   |   |   |   |   |   |   |   |   |   |   |   |   |   |   
E |---------------|-0-------3---5-|---------------|---------3---3-|-5---5---7---8-| 
B |-8-----------6-|-----6---------|-3-----------3-|-5---6---------|---------------| 
G |---------------|---------------|---------------|---------------|---------------| 
D |---------------|---------------|---------------|---------------|---------------| 
A |---------------|---------------|---------------|---------------|---------------| 
E |---------------|---------------|---------------|---------------|---------------| 



57  |   |   |   |    |   |   |   |   |   |   |   |    |   |   |   |   
E |-10--12---------|---------------|-12--10--8---10-|-7-------------| 
B |---------10--10-|-8-----------8-|----------------|-------------8-| 
G |----------------|---------------|----------------|---------------| 
D |----------------|---------------|----------------|---------------| 
A |----------------|---------------|----------------|---------------| 
E |----------------|---------------|----------------|---------------| 



61  |   |   |   |   |   |   |   |   |   |   |   |   |   |   |   |    
E |-8---5---------|---------------|-----5-------8-|-7---10--8---12-| 
B |---------8-----|-6-----------8-|-5-------8-----|----------------| 
G |-------------6-|---------------|---------------|----------------| 
D |---------------|---------------|---------------|----------------| 
A |---------------|---------------|---------------|----------------| 
E |---------------|---------------|---------------|----------------| 



65  |   |   |   |    |   |   |   |  |   |   |   |  |   |   |   |  
E |-12--10---------|--------------|--------------|--------------| 
B |---------13--12-|-13-----------|--------------|--------------| 
G |----------------|--------------|--------------|--------------| 
D |----------------|--------------|--------------|--------------| 
A |----------------|--------------|--------------|--------------| 
E |----------------|--------------|--------------|--------------| 
	  

Request the video "A Cristo Coroai"  -  Send "A Cristo Coroai" Ringtone to your Cell

there isn't a video lesson for this song

request
Search
auto scroll beats size up size down change color hide chords drawings
tab show chords e-chords YouTube Clip e-chords hide all tabs e-chords go to top tab