Collective Soul

home > Collective... > chords

Simple Tab

Collective Soul

Difficulty: nolevelnolevel

by tercmoraes

tuner correct add songbook print version text version rtf version e-mail
chordsukulelecavacokeyboardtabbassdrumsharmonicsflute Guitar Pro
chords

Simple

	  Intro: E7 

Not a simple little thing to push on me now 
Not a simple little thing to shove on me now 
Not a simple little thing to touch on me now 
Not a simple little thing to love on me now 

RIFF 1  Parte 1 
E|---------------------------------------------------| 
B|---------------------------------------------------| 
G|---------------------------------------------------| 
D|---2--2--------------------------------------------| 
A|---2--2---7/0-----5/0-------7/0----------5~~-------| 
E|---0--0--------7--------0---------5--7-------------| 

        Parte 2 
E|---------------------------------------------------| 
B|---------------------------------------------------| 
G|---------------------------------------------------| 
D|---2--2----------------------------------5~~-------| 
A|---2--2---7/0-----5/0-------7/0--------------------| 
E|---0--0--------7--------0---------5--7-------------| 

Tangle up your twisted tongue, It's simple 
Mesmerize your everyday, It's simple 
Hey hey can't you see? 
Love is all that you should need 
Can't you see? 

RIFF Transição para o Pré-Refrão 
E|---------------------------------------------------| 
B|---------------------------------------------------| 
G|---------------------------------------------------| 
D|---2--2--------------------------------------------| 
A|---2--2---7/0-----5/0-------7/0--------------------| 
E|---0--0--------7--------0---------0-0---7/0----5/0-| 

G 
Ease your troubled mind. 
A                                   E 
Let love seek & let love find, It's simple 

RIFF 2  2x 
E|----------------------------------------------------| 
B|------------------------------2---------------------| 
G|------------------------------2---------------------| 
D|---2--2-----2/0---------------2----2----------------| 
A|---2--2-----------------------0----2----------------| 
E|---0--0-----------0---3---0--------0----------------| 

G 
Ease your weary soul. 
A                                   E 
Let love lead & let love flow, It's simple 

RIFF 2  2x 
E|----------------------------------------------------| 
B|------------------------------2---------------------| 
G|------------------------------2---------------------| 
D|---2--2-----2/0---------------2----2----------------| 
A|---2--2-----------------------0----2----------------| 
E|---0--0-----------0---3---0--------0----------------| 

RIFF 1 

Pry into combative times, It's simple 
Forfeit all lush concerns, It's simple 
Hey hey don't you care? 
Love is all that you should share 
Don't you care? 

G 
Ease your troubled mind. 
A                                   E 
Let love seek & let love find, It's simple 

RIFF 2 2x 

G 
Ease your weary soul. 
A                                   E 
Let love lead & let love flow, It's simple 

RIFF 2  2x 

 D                A       G  E 
Simple words, simple ryhmes, simple thoughts 
 E            D            A             G   E 
Simple minds, simple ways, simple shoulds 
E 
I'll simply change, simple put, 
D 
simple wrongs 
A                        G            D 
Simple rights, simple worlds, I simply fight 


RIFF 3 
E|--------------------------| 
B|--------------------------| 
G|--------------------------| 
D|--------------------------| 
A|----------7/0-----5-------| 
E|---0--0--------7----------| 

Cleansing out your tarnished heart 
It's simple 
Learning from each other can be simple 

RIFF 1 

Hey hey don't we know? 
Love is all that we should show. 
Don't we know? 

RIFF Transição para o Pré-Refrão 

G 
Ease your troubled mind. 
A                                   E 
Let love seek & let love find, It's simple 

RIFF 2 2x 

G 
Ease your weary soul. 
A                                   E 
Let love lead & let love flow, It's simple 

RIFF4 

E|--------------------------------------------------| 
B|--------------------------------------------------| 
G|--------------------------------------------------| 
D|---2--2------2/0-------------------2/0------------| 
A|---2--2---------------------------------2/0-------| 
E|---0--0-----------0---3/0--0--0--------------~3~~-| 

Not a simple little thing to push on me 
Not a simple little thing to shove on me 
Not a simple little thing to touch on me 
Not a simple little thing to love on me , Yeah 
	  

Request the video "Simple"  -  Send "Simple" Ringtone to your Cell

there isn't a video lesson for this song

request
Full key step upFull key step up
Half key step upHalf key step up
Half key step downHalf key step down
Full key step downFull key step down
Search
auto scroll beats size up size down change color hide chords drawings
tab show chords e-chords YouTube Clip e-chords hide all tabs e-chords go to top tab