Chic

home > Chic > chords

Le freak Tab

Chic

Difficulty: EasyEasy

by europeu

tuner correct add songbook print version text version rtf version e-mail
chordsukulelecavacokeyboardtabbassdrumsharmonicsflute Guitar Pro
chords

Le freak

	   
-5-5-5------55-----5----7-7-7-5-5-|------------------------------------------- 
-5-5-5------55-----5----7-7-7-5-5-|------------------------------------------- 
-5-5-5------55-----5----7-7-7-5-5-|------------------------------------------- 
--------5h7-----77----7-----------|------------------------------------------- 
----------------------------------|------------------------------------------- 
----------------------------------|------------------------------------------- 
strings etc solo  
 
-5-5-5-5-5--5--5--7-5--|------------------------------------------------------ 
-5-5-5-5-5--5--5--7-5--|------------------------------------------------------ 
-5-5-5-5-5--5--5--7-5--|------------------------------------------------------ 
-----------------------|------------------------------------------------------ 
-----------------------|------------------------------------------------------ 
-----------------------|------------------------------------------------------ 
 
 

	  

Request the video "Le freak"  -  Send "Le freak" Ringtone to your Cell

chic-le-freak-(70s) Play

there is a video lesson for this song

watch now

Search
auto scroll beats size up size down change color hide chords drawings
tab show chords e-chords YouTube Clip e-chords hide all tabs e-chords go to top tab