Charlie Daniels

home > Charlie Da... > chords

Long Haired Country Boy (ver. 2) Tab

Charlie Daniels

Difficulty: ExpertExpert

tuner correct add songbook print version text version rtf version e-mail
chordsukulelecavacokeyboardtabbassdrumsharmonicsflute Guitar Pro
chords

Long Haired Country Boy (ver. 2)

	  Long Haired Country Boy 
written and performed by Charlie Daniels 
transcribed by Matt Pruitt and Derrick Fowler 
 
 
Intro: 
e|----2---2-----------------------------------------| 
B|----3---3--------------5-0------------------------| 
G|----2-2-2-----0---3^-0-----7-0-5-0-3-0-----0-2-0--| 
D|--0-0-0-0-0h2---2----------------------0h2--------| 
A|--------------------------------------------------| 
E|--------------------------------------------------| 
 
  D 
People say I'm no good and crazy as a loon 
 
Cause I get stoned in the morning I get drunk in the afternoon 
 
Kind of like my ole blue tick hound I like to lay around in the shade 
 
And I ain't got no money but I damn sure got it made, cause 
 
 
CHORUS: 
          G                        G7 G 
I ain't asking nobody for nothing 
                         D  
If I can't get it on my own 
              A 
If you don't like the way I'm living 
          NC  
You just leave this long haired country boy alone 
 
 
RIFF(variation of intro): 
e|----2---2------------------------------------------| 
B|----3---3---------------5-0------------------------| 
G|----2-2-2-----0---2^-2^-----7-0-5-0-3-0-----0-2-0--| 
D|--0-0-0-0-0h2---2-----------------------0h2--------| 
A|---------------------------------------------------| 
E|---------------------------------------------------| 
 
 
   D 
Preacher man talking on TV putting down the rock'n roll 
 
Wants me to send a donation cause he's worried about my soul 
 
He said Jesus walked on the water and I know that is true 
 
But sometimes I think that preacher man'd like to do a little walking too, but 
 
 
REPEAT CHORUS & RIFF 
 
 
A poor girl wants to marry and a rich girl wants to flirt 
 
A rich man goes to college and a poor man goes to work 
 
A drunkard wants another drink of wine and a politician wants to vote 
 
I don't want much of nothing at all but I will take another toke, but 
 
 
REPEAT CHORUS & INTRO 
 
 
 
 
 
 
Short break at D  
e|---------------------| 
B|---------------------| 
G|---------------------| 
D|------0---3-2-0---0--| 
A|--0h2---2-------2----| 
E|---------------------| 
 
 
The last line of the chorus can be played with no chord, as follows: 
 
e|---------------0----------------------| 
B|---------------2----------------------| 
G|---------------2----------------------| 
D|---------------2----------------------| 
A|---------------0----------------------| 
E|--------------------------------------| 
   If you don't like the way I'm living 
 
e|---------------------------------------------------| 
B|---------------------------------------------------| 
G|---------------------------------------------------| 
D|---------------------------------------------------| 
A|------------3---------2-----0----------------------| 
E|-----------------------------------3-----1-1-------| 
   You just leave this long haired country boy alone 
 
 
 
Finally, correct tablature for this song! 
Any questions, comments, other CDB tabs sdfowl0@pop.uky.edu 
 
 

	  

Request the video "Long Haired Country Boy (ver. 2)"  -  Send "Long Haired Country Boy (ver. 2)" Ringtone to your Cell

there isn't a video lesson for this song

request
Full key step upFull key step up
Half key step upHalf key step up
Half key step downHalf key step down
Full key step downFull key step down
Search
auto scroll beats size up size down change color hide chords drawings
tab show chords e-chords YouTube Clip e-chords hide all tabs e-chords go to top tab