Bullet for my Valentine

home > Bullet for... > chords

Tears Don't Fall (Acoustic) Tab

Bullet for my Valentine

Difficulty: ExpertExpert

by lessyplayer

tuner correct add songbook print version text version rtf version e-mail
chordsukulelecavacokeyboardtabbassdrumsharmonicsflute Guitar Pro
chords

Tears Don't Fall (Acoustic)

	  Tears Don't Fall (Acoustic) 
Bullet For My Valentine 
The Poison 
Drop C 
Tabbed by Dylan Duquette 

Intro/Chorus (0:00 - 0:03) 
D|--------------------------|--------------------------| 
A|--------------6--6--6--6--|--5--5--5--5--6--6--6--6--| 
F|--------------5--5--5--5--|--5--5--5--5--5--5--5--5--| 
C|--3--3--3--3--3--3--3--3--|--3--3--3--3--3--3--3--3--| 
G|--3--3--3--3--3--3--3--3--|--3--3--3--3--3--3--3--3--| 
C|--3--3--3--3--3--3--3--3--|--3--3--3--3--3--3--3--3--| 

(0:03 - 0:06) 
D|--------------------------|------------------------| 
A|--------------8--8--8--8--|----8----8--8--8--8--8--| 
F|--------------7--7--7--7--|----7----7--7--7--7--7--| 
C|--5--5--5--5--5--5--5--5--|----5----5--5--5--5--5--| 
G|--5--5--5--5--5--5--5--5--|----5----5--5--5--5--5--| 
c|--5--5--5--5--5--5--5--5--|----5----5--5--5--5--5--| 

(0:06 - 0:09) 
D|--------------------------|--------------------------| 
A|--------------6--6--6--6--|--5--5--5--5--6--6--6--6--| 
F|--------------5--5--5--5--|--5--5--5--5--5--5--5--5--| 
C|--3--3--3--3--3--3--3--3--|--3--3--3--3--3--3--3--3--| 
G|--3--3--3--3--3--3--3--3--|--3--3--3--3--3--3--3--3--| 
C|--3--3--3--3--3--3--3--3--|--3--3--3--3--3--3--3--3--| 

(0:09 - 0:12) 
D|--------------------------|--------------------| 
A|--------------8--8--8--8--|--10-10-10-8--8--8--| 
F|--------------7--7--7--7--|--9--9--9--7--7--7--| 
C|--5--5--5--5--5--5--5--5--|--7--7--7--5--5--5--| 
G|--5--5--5--5--5--5--5--5--|--7--7--7--5--5--5--| 
c|--5--5--5--5--5--5--5--5--|--7--7--7--5--5--5--| 

Repeat the intro. 

(0:25 - 0:28) 
D|--------------------------| 
A|--------------------------| 
F|--------------------------| 
C|-2222222222222222---------| 
G|-0000000000000000---------| 
C|--------------------------| 
   pm.............. 

Verse part 1 (0:28 - 0:40) 
D|-0--0--0--0----------------0~----| 
A|-1--1--1--3----------------3~----| 
F|-2--2--2--4--|    |--------4~----| 
C|-2--2--3--5--| X2 |-end on-5~----| 
G|-0--0--0--0--|    |--------0~----| 
C|-X--X--X--X----------------X~----| 

Verse part 2 {Guitar 1}(0:42 - 1:07) 
D|--------------0-----------|--------------0-----------| 
A|--------1--------1-----1--|--------1--------1-----1--| 
F|-----2-----2--------2-----|-----2-----2--------2-----| 
C|--2-----------------------|--2-----------------------| 
G|--------------------------|--------------------------| 
c|--------------------------|--------------------------| 

D|--------------0-----------|--------------0-----------| 
A|--------1--------1-----1--|--------3--------3-----3--| 
F|-----2-----2--------2-----|-----4-----4--------4-----| 
C|--3-----------------------|--5-----------------------| 
G|--------------------------|--------------------------| 
C|--------------------------|--------------------------| 

Verse part 2 {Guitar 2} (0:42 - 1:07) 
D|-8-8-8-8-8-8-8-8-10-10-10-10-7-7-7-7----| 
A|--5-5-5-5-5-5-5-5--5--5--5--5-5-5-5-5---| 
F|----------------------------------------| 
C|----------------------------------------| 
G|----------------------------------------| 
C|----------------------------------------| 

Chorus {Guitar 1}(1:08 - 1:20) & (1:21 - 1:33) 
D|-------------------------------------| 
A|-------------------------------------| 
F|-------------------------------------| 
C|-333333333333333355555555-555-555----| 
G|-333333333333333355555555-555-555----| 
C|-333333333333333355555555-555-555----| 

D|-------------------------------------| 
A|-------------------------------------| 
F|-------------------------------------| 
C|-333333333333333355555555-777-555----| 
G|-333333333333333355555555-777-555----| 
C|-333333333333333355555555-777-555----| 

{Guitar 2} (1:08 - 1:20) & (1:21 - 1:33) 
D|-8-8-8-8-8-8-8-8-10-10-10-10-7-7-7-7----| 
A|--5-5-5-5-5-5-5-5--5--5--5--5-5-5-5-5---| 
F|----------------------------------------| 
C|----------------------------------------| X2 
G|----------------------------------------| 
C|----------------------------------------| 

(1:33 - 1:36)  
D|-8~-------------------------| 
A|----------------------------| 
F|----------------------------| 
C|---2222222222222222---------| 
G|---0000000000000000---------| 
C|----------------------------| 
     pm.............. 

Verse part 1 (1:36 - 1:48) 
D|-0--0--0--0----------------0~----| 
A|-1--1--1--3----------------3~----| 
F|-2--2--2--4--|    |--------4~----| 
C|-2--2--3--5--| X2 |-end on-5~----| 
G|-0--0--0--0--|    |--------0~----| 
C|-X--X--X--X----------------X~----| 

Verse part 2 {Guitar 1}(1:49 - 2:16) 
D|--------------0-----------|--------------0-----------| 
A|--------1--------1-----1--|--------1--------1-----1--| 
F|-----2-----2--------2-----|-----2-----2--------2-----| 
C|--2-----------------------|--2-----------------------| 
G|--------------------------|--------------------------| 
c|--------------------------|--------------------------| 

D|--------------0-----------|--------------0-----------| 
A|--------1--------1-----1--|--------3--------3-----3--| 
F|-----2-----2--------2-----|-----4-----4--------4-----| 
C|--3-----------------------|--5-----------------------| 
G|--------------------------|--------------------------| 
C|--------------------------|--------------------------| 

Verse part 2 {Guitar 2} (1:49 - 2:16) 
D|-8-8-8-8-8-8-8-8-10-10-10-10-7-7-7-7----| 
A|--5-5-5-5-5-5-5-5--5--5--5--5-5-5-5-5---| 
F|----------------------------------------| 
C|----------------------------------------| 
G|----------------------------------------| 
C|----------------------------------------| 

Chorus {Guitar 1}(2:16 - 2:28) & (2:28 - 2:41) 
D|-------------------------------------| 
A|-------------------------------------| 
F|-------------------------------------| 
C|-333333333333333355555555-555-555----| 
G|-333333333333333355555555-555-555----| 
C|-333333333333333355555555-555-555----| 

D|-------------------------------------| 
A|-------------------------------------| 
F|-------------------------------------| 
C|-333333333333333355555555-777-555----| 
G|-333333333333333355555555-777-555----| 
C|-333333333333333355555555-777-555----| 

{Guitar 2} (2:16 - 2:28) & (2:28 - 2:41) 
D|-8-8-8-8-8-8-8-8-10-10-10-10-7-7-7-7----| 
A|--5-5-5-5-5-5-5-5--5--5--5--5-5-5-5-5---| 
F|----------------------------------------| 
C|----------------------------------------| X2 
G|----------------------------------------| 
C|----------------------------------------| 

solo: Rhythm (2:41 - 3:06) 
D|-0--0--0--0----------| 
A|-1--1--1--3----------| 
F|-2--2--2--4--|    |--| 
C|-2--2--3--5--| X4 |--| 
G|-0--0--0--0--|    |--| 
C|-X--X--X--X----------| 

Solo: Lead (still to be figured out) 

{Guitar 1} (3:06 - 3:34) 
D|--------------0-----------|--------------0-----------| 
A|--------1--------1-----1--|--------1--------1-----1--| 
F|-----2-----2--------2-----|-----2-----2--------2-----| 
C|--2-----------------------|--2-----------------------| 
G|--------------------------|--------------------------| 
c|--------------------------|--------------------------| 

D|--------------0-----------|--------------0-----------| 
A|--------1--------1-----1--|--------3--------3-----3--| 
F|-----2-----2--------2-----|-----4-----4--------4-----| 
C|--3-----------------------|--5-----------------------|  
G|--------------------------|--------------------------| 
C|--------------------------|--------------------------| 

{Guitar 2} (3:21 - 3:34) 
D|--------------------------|--------------------------| 
A|--------------------------|--------------------------| 
F|---5-5-5-5-5-5-5-5--------|---5-5-5-5-5-5-5-5--------| 
C|--------------------------|--------------------------| 
G|--------------------------|--------------------------| 
C|--------------------------|--------------------------| 
     pm..............           pm............. 

D|--------------------------|--------------------------| 
A|--------------------------|--------------------------| 
F|---7-7-7-7-7-7-7-7--------|---5-5-5-5-4-4-4-4--------| 
C|--------------------------|--------------------------| 
G|--------------------------|--------------------------| 
C|--------------------------|--------------------------| 
    pm..............            pm............. 


Chorus {Guitar 1}(3:34 - 3:47) & (3:47 - 3:59) 
D|-------------------------------------| 
A|-------------------------------------| 
F|-------------------------------------| 
C|-333333333333333355555555-555-555----| 
G|-333333333333333355555555-555-555----| 
C|-333333333333333355555555-555-555----| 

D|-------------------------------------| 
A|-------------------------------------| 
F|-------------------------------------| 
C|-333333333333333355555555-777-555----| 
G|-333333333333333355555555-777-555----| 
C|-333333333333333355555555-777-555----| 

{Guitar 2} (3:34 - 3:47) & (3:47 - 3:59) 
D|-8-8-8-8-8-8-8-8-10-10-10-10-7-7-7-7----| 
A|--5-5-5-5-5-5-5-5--5--5--5--5-5-5-5-5---| 
F|----------------------------------------| 
C|----------------------------------------| X2 
G|----------------------------------------| 
C|----------------------------------------| 

{Guitar 1 & 2} (3:59 - 4:02) 
D|--------------------------| 
A|-----7--------------------| 
F|-7-9---9-7-9-5~-----------| 
C|--------------------------| 
G|--------------------------| 
C|--------------------------| 

Chorus {Guitar 1} (4:02 - 4:15) & (4:15 - 2:41) 
D|-------------------------------------| 
A|-------------------------------------| 
F|-------------------------------------| 
C|-333333333333333355555555-555-555----| 
G|-333333333333333355555555-555-555----| 
C|-333333333333333355555555-555-555----| 

D|-------------------------------------| 
A|-------------------------------------| 
F|-------------------------------------| 
C|-333333333333333355555555-777-555----| 
G|-333333333333333355555555-777-555----| 
C|-333333333333333355555555-777-555----| 

{Guitar 2} (4:02 - 2:28) & (4:15 - 4:27) 
D|-8-8-8-8-8-8-8-8-10-10-10-10-7-7-7-7----| 
A|--5-5-5-5-5-5-5-5--5--5--5--5-5-5-5-5---| 
F|----------------------------------------| 
C|----------------------------------------| X2 
G|----------------------------------------| 
C|----------------------------------------| 

(4:27 - 4:30) 
D|----------------------------| 
A|----------------------------| 
F|----------------------------| 
C|-3~-------------------------| 
G|-3~-------------------------| 
C|-3~-------------------------| 

For questions on the tab or solo feel free to e-mail  
me at Duquette_41@hotmail.com 

	  

Request the video "Tears Don't Fall (Acoustic)"  -  Send "Tears Don't Fall (Acoustic)" Ringtone to your Cell

there isn't a video lesson for this song

request
Full key step upFull key step up
Half key step upHalf key step up
Half key step downHalf key step down
Full key step downFull key step down
e-chords
Search
auto scroll beats size up size down change color hide chords drawings
tab show chords e-chords YouTube Clip e-chords hide all tabs e-chords go to top tab