Bullet for my Valentine

home > Bullet for... > chords

Hearts Burst Into Fire Tab

Bullet for my Valentine

Difficulty: ExpertExpert

by aman_claudino

tuner correct add songbook print version text version rtf version e-mail
chordsukulelecavacokeyboardtabbassdrumsharmonicsflute Guitar Pro
chords

Hearts Burst Into Fire

	  D|---------3-----3-----3-----3------------------------| 
A|-----6-----6-----6-----6-----6-------6---5-6--------| 
F|-------5-----5-----5-----5-----5-------5-----5------| 
C|---3-------------------------------3-----------0----| 
G|----------------------------------------------------| 
C|-3-------------------------------3------------------| 

D|-----------| 
A|-5-6-------| 
F|-----5-----| 
C|-------0---| 
G|-----------| 
C|-----------| 

Solo(guitar 2) : 

D|--------------------------------------------------------| 
A|--------13----------------------------------------------| 
F|-9--10------10--9--10--7--5-5--7-7--9-9--10-10--12-12---| 
C|--------------------------------------------------------| 
G|--------------------------------------------------------| 
C|--------------------------------------------------------| 


D|---------------------------------------------------------| 
A|---------------------------------------------------------| 
F|----10p12p10p12p14p12p10p12p10p12p10p12p14p12p10p12------| 
C|---------------------------------------------------------| 
G|---------------------------------------------------------| 
C|---------------------------------------------------------| 

D|---------------------------------------------------------| 
A|---------------------------------------------------------| 
F|----9p10p9p10p12p10p9p10p9p10p9p10p12p10p9p10------------| 
C|---------------------------------------------------------| 
G|---------------------------------------------------------| 
C|---------------------------------------------------------| 

D|---------------------------------------------------------| 
A|----------------10----------10-11-10---------------------| 
F|-7--9--10--5-5-----12-10-12----------10-10b--------------| 
C|---------------------------------------------------------| 
G|---------------------------------------------------------| 
C|---------------------------------------------------------| 

Guitar 3: 

D|---------------------------------------------------------| 
A|---------------------------------------------------------| 
F|-3-3---3-3---3-3---3-3-----------------------------------| 
C|-3-3---3-3---3-3---3-3---0-0---0-0---0-0-----------------| 
G|-3-3---3-3---3-3---3-3---0-0---0-0---0-0-----------------| 
C|-------------------------0-0---0-0---0-0-----------------| 

Verse : 


D|--------------------------------------------------------------| 
A|-6-------6-5-------6-5------6-5---6---6-------6-5-------5-6---| 
F|-5-------5-5-------5-5------5-5---5---5-------5-5-------5-5---| 
C|-3-------3-3-------3-3------3-3---3---3-------3-3-------3-3---| 
G|-3—-333—------333------333------------3--333-------333--------| 
C|-3--333-------333------333------------0--000-------000--------| 

D|-----------------------| 
A|------6-5-6-5-6--------| 
F|------5-5-5-5-5--------| 
C|------3-3-3-3-3--------| 
G|-333-------------------| 
C|-000-------------------| 

Chorus: 

D|----------------------------------------------------------------------| 
A|----------------------------------------------------------------------| 
F|-3-33333333333—-5s7-77777777777—-5s3-33333333333—-3s55555555555-------| 
C|-3-33333333333—-5s7-77777777777—-5s3-33333333333—-3s55555555555-------| 
G|-1-11111111111—-3s5-55555555555—-3s1-11111111111—-1s33333333333-------| 
C|----------------------------------------------------------------------| 


D|------------------------8-----------------------------8----------------| 
A|-----------------8-10-8---10-8-10-8-10---10----8-10-8---10-8-10-8-10---| 
F|-3---5---7-------------------------------------------------------------| 
C|-3---5---7-------------------------------------------------------------| 
G|-1---3---5-------------------------------------------------------------| 
C|-----------------------------------------------------------------------| 

D|-----------------------------------------------------------------------| 
A|--8p10-----------------------------------------------------------------| 
F|--------10p12---------7---------3----------5-5555555555--3--5----------| 
C|---------------10p12--7--7---5--3--3-2-0---5-5555555555--3--5----------| 
G|----------------------5----8----1--------3—3-3333333333--1--3----------| 
C|-----------------------------------------------------------------------| 

Break (guitar 1): 

D|--------------------------------------------------| 
A|-3---------3------------------3-------------------| 
F|-2--3--5---2--3--5--3---3--5--2--3--5-------------| 
C|-0--3--5---0--3--5--3---3--5--0--3--5-------------| 
G|----1--3------1--3--1---1--3-----1--3-------------| 
C|--------------------------------------------------| 

Guitar 2 (I’m not sure…): 

D|------------------------------------------| 
A|----10--------10--------------------------| 
F|-------10--------12-10-12-10--------------| 
C|-10-------10-----------------10-----------| 
G|------------------------------------------| 
C|------------------------------------------| 

D|-----------------------------| 
A|-13-10-13-10-----------------| 
F|-------------10--------------| 
C|----------------10-----------| 
G|-----------------------------| 
C|-----------------------------| 

Break 2 (guitar 1): 

D|-------------------------------------------------------------------------| 
A|-18-17-----------------18-17-----------------18-17-----------------------| 
F|-------17-12-------------------17-12-------------------17-12-------------| 
C|-------------15-14-15----------------15-14-15----------------15-14-15----| 
G|-------------------------------------------------------------------------| 
C|-------------------------------------------------------------------------| 

D|-------------------------| 
A|-18-17-------------------| 
F|-------17-12-------------| 
C|-------------15-17b15----| 
G|-------------------------| 
C|-------------------------| 

Guitar 2: 

D|-17-15-------------------17-15-------------------------| 
A|-------18----------------------18----------------------| 
F|----------15-14-12-14-------------15-14-12-15b12-------| 
C|-------------------------------------------------------| 
G|-------------------------------------------------------| 
C|-------------------------------------------------------| 
	  

Request the video "Hearts Burst Into Fire"  -  Send "Hearts Burst Into Fire" Ringtone to your Cell

there isn't a video lesson for this song

request
Search
auto scroll beats size up size down change color hide chords drawings
tab show chords e-chords YouTube Clip e-chords hide all tabs e-chords go to top tab