Buckethead

home > Buckethead > chords

Halloween Theme Tab

Buckethead

Difficulty: IntermediateIntermediate

by halen666

tuner correct add songbook print version text version rtf version e-mail
chordsukulelecavacokeyboardtabbassdrumsharmonicsflute Guitar Pro
chords

Halloween Theme

	  Main riff:1 (tap the notes with fret hand)  
E-------9------9------9----10-----(2X)-8-----8-----8---9---(2X)-|  
B---------7-7----7-7----7-----7----------6-6---6-6---6---6------|  
G---------------------------------------------------------------|  
D---------------------------------------------------------------|  
A---------------------------------------------------------------|  
E---------------------------------------------------------------|  

(tap notes with picking hand)  
First bass riff: Low E---2(let ring)----5(let ring)--6(let ring)|  

Main riff:2 (tap notes with fret hand)  
E--7-----7-----7---8----(2X)---6-----6-----6---7---(2X)-|  
B----5-5---5-5---5---5-----------4-4---4-4---4---4------|  
G-------------------------------------------------------|  
D-------------------------------------------------------|  
A-------------------------------------------------------|  
E-------------------------------------------------------|  

Second Bass riff: tap with picking hand  
Low E:--0---3--4--(let each note ring)---------------|  

Main riff:3 (tap with fret hand)  
E---14--------14-------14----15-----(10X)--------------|  
B------12-12-----12-12----12----12---------------------|  
G------------------------------------------------------|  
D------------------------------------------------------|  
A------------------------------------------------------|  
E------------------------------------------------------|  

Third Bass riff: tap with picking hand  
Low E:--7--10--12--14---(2X)---------------------------| 

this will take you a while to do right 
	  

Request the video "Halloween Theme"  -  Send "Halloween Theme" Ringtone to your Cell

there isn't a video lesson for this song

request
Search
auto scroll beats size up size down change color hide chords drawings
tab show chords e-chords YouTube Clip e-chords hide all tabs e-chords go to top tab