Boyce Avenue

home > Boyce Avenue

Titanium Tab

Boyce Avenue

Difficulty: ExpertExpert

by deivcavalcanti

tuner correct add songbook print version text version save to e-mail
chordsukulelecavacokeyboardtabbassdrumsharmonicsflute Guitar Pro
chords

Titanium

	  

Intro: 

Slightly Palm Muted 
E|------------------------------------------------------------------------------| 
B|------------------------------------------------------------------------------| 
G|-------2---4---2----------0---2---0---------2---4---2--5----4---2---4---0-----| 
D|-----0---0---0---0------0---0---0---0-----0---0---0-----------0---0---0---0---| 
A|------------------------------------------------------------------------------| 
E|---3-----------------2-----------------0----------------0---------------------| 

Verse (x4): 

Slightly Palm Muted 
E|------------------------------------------------------------------------------| 
B|------------------------------------------------------------------------------| 
G|-------2---4---2----------0---2---0---------2---4---2--5----4---2---4---0-----| 
D|-----0---0---0---0------0---0---0---0-----0---0---0-----------0---0---0---0---| 
A|------------------------------------------------------------------------------| 
E|---3-----------------2-----------------0----------------0---------------------| 


Chorus (x4): 

Slightly Palm Muted 
   
       C          D          Bm           Em 
E|-----x----------x----------x------------x-------------------------------| 
B|-----x----------x----------x------------x-------------------------------| 
G|-----x----------7----------4------------x-------------------------------| 
D|-----10---------7----------4------------2-------------------------------| 
A|-----10---------5----------2------------2-------------------------------| 
E|-----8----------x----------x------------x-------------------------------| 

Then (x2):  

Strummed 

       C          D          Bm           Em 
E|-----0----------0----------0------------0-------------------------------| 
B|-----0----------3----------0------------0-------------------------------| 
G|-----0----------2----------4------------0-------------------------------| 
D|-----2----------0----------4------------2-------------------------------| 
A|-----3----------x----------2------------2-------------------------------| 
E|-----x----------x----------x------------0-------------------------------| 


Bridge (x2): 

Single Strummed 

       C          D          Bm           Em 
E|-----0----------0----------0------------0-------------------------------| 
B|-----0----------3----------0------------0-------------------------------| 
G|-----0----------2----------4------------0-------------------------------| 
D|-----2----------0----------4------------2-------------------------------| 
A|-----3----------x----------2------------2-------------------------------| 
E|-----x----------x----------x------------0-------------------------------|  
	  

Play

there is a video lesson for this song

view more
Full key step upFull key step up
Half key step upHalf key step up
Half key step downHalf key step down
Full key step downFull key step down
Search
auto scroll beats size up size down change color hide chords drawings
tab show chords e-chords YouTube Clip e-chords hide all tabs e-chords go to top tab