Boyce Avenue

home > Boyce Aven... > chords

She Will Be Loved Tab

Boyce Avenue

Difficulty: BeginnerBeginner

by aman_claudino

tuner correct add songbook print version text version rtf version e-mail
chordsukulelecavacokeyboardtabbassdrumsharmonicsflute Guitar Pro
chords

She Will Be Loved

	  
Intro:
 
e|------------------------------1-----------------------------| 
B|----3-3-3-3-------2-2---2---------3-3-3-3-------2-2---2-----| 
G|----2-2-2-2-----------0-----------------------------0-------| 
D|------------------2-2--2------------------------2-2--2------| 
A|--2-----------0-------------2-----2-2-2-2---0---------------| 
E|------------------------------------------------------------| 


Verse: 

e|------------------------------1-----------------------------| 
B|----3-3-3-3-------2-2---2---------3-3-3-3-------2-2---2-----| 
G|----2-2-2-2-----------0-----------------------------0-------|	 (4x)  
D|------------------2-2--2------------------------2-2--2------| 
A|--2-----------0-------------2-----2-2-2-2---0---------------| 
E|------------------------------------------------------------| 

Chorus:
 
e|--------------------------------------------------------------| 
B|--3--2--3-----3--2-----------2h3------3p2------2-3--3-0--3----| 
G|--2--2--4--0--2--2--4--0---------------------------------2----| 
D|--0--0--4--0--0--0--4--0----0-------0--------0-----------0----|   
A|--------------------2-----0-------0--------2------------------| 
E|--------------------------------------------------------------| 

Verse:
 
e|------------------------------1-----------------------------| 
B|----3-3-3-3-------2-2---2---------3-3-3-3-------2-2---2-----| 
G|----2-2-2-2-----------0-----------------------------0-------|	 (3x)  
D|------------------2-2--2------------------------2-2--2------| 
A|--2-----------0-------------2-----2-2-2-2---0---------------| 
E|------------------------------------------------------------| 


e|------------------------------1-----------------------------| 
B|----3-3-3-3-------2-2---2---------3-3-3-3---2---------------| 
G|----2-2-2-2-----------0---------------------0---------------|	   
D|------------------2-2--2--------------------2---------------| 
A|--2-----------0-------------2-----2-2-2-2-------------------| 
E|------------------------------------------------------------| 

Chorus:
 
e|--------------------------------0------------------------------------0----| 
B|--------3-----3p2-------3---------3--------3--------3p2-------3-----3-----| 
G|------2----2----------2-------2----------2--------2---------2------2------| 
D|----0----0----------0-------0----------0--------0---------0-------0-------| 
A|--0---------------2------------------0------------------2-----------------| 
E|--------------------------------------------------------------------------| 

And she will be loved... 

e|------------------------| 
B|------------------------| 
G|--12p11----------7s9----| (3x) 
D|-------12s7----7--------| 
A|-------------0----------| 
E|------------------------| 

e|------------------------| 
B|------------------------| 
G|--12p11----------6s7----| 
D|-------12s7----7--------| 
A|-------------0----------| 
E|------------------------| 

Bridge:
 
e|----------------------------------------------| 
B|----------------------------------------------| 
G|---6-6-6-7-6---6-6-6h7-6-6-6-7h9-9--7-6-7--6--| 
D|----7-7-7----7--7-7-----7-7-7-----------------|   
A|----------------------------------------------| 
E|----------------------------------------------| 

e|---------------------------------------------| 
B|---------------------------------------------| 
G|---6-6-6-7-6---6-6-6h7-6-6-6-7-9--7----6s7---| 
D|----7-7-7----7--7-7-----7-7-7------7---------|   
A|---------------------------------------------| 
E|---------------------------------------------| 

e|-------------------| 
B|-------------------| 
G|-----6-----7h6-----| 
D|----7-7-------7----|   
A|---0---------------| 
E|-------------------| 

Pre-Chorus
 
e|------------------------------1---------------------| 
B|----3-3-3-3-------2-2---2---------3-3-3-3---2-------| 
G|----2-2-2-2-----------0---------------------0-------|	   
D|------------------2-2--2--------------------2-------| 
A|--2-----------0-------------2-----2-2-2-2-----------| 
E|----------------------------------------------------| 

Chorus: 

e|--------------------------------0------------------------------------0----| 
B|--------3-----3p2-------3---------3--------3--------3p2-------3-----3-----| 
G|------2----2----------2-------2----------2--------2---------2------2------| 
D|----0----0----------0-------0----------0--------0---------0-------0-------| 
A|--0---------------2------------------0------------------2-----------------| 
E|--------------------------------------------------------------------------| 

And she will be loved... 

e|------------------------| 
B|------------------------| 
G|--12p11----------7s9----| (3x) 
D|-------12s7----7--------| 
A|-------------0----------| 
E|------------------------| 

e|------------------------| 
B|------------------------| 
G|--12p11----------6s7----| 
D|-------12s7----7--------| 
A|-------------0----------| 
E|------------------------| 

Solo 

e|--5------------------------5------------------------------| 
B|------5-5h7--------------------5-5h7----------------------| 
G|----7------7s6-4s2-----------7--------11--11--12--12------| 
D|-------------------4s2-4s7--------------12--12--12--12----|   
A|----------------------------------------------------------| 
E|----------------------------------------------------------| 

And she will be loved... 

e|--------------------------------------------------------------------------| 
B|--------------------------------------------------------------------------| 
G|--14--14--14--14----11--11--9--9---14--14--14--14-----11--11--12--12---11-| 
D|----12--12--12--12----12--12-11-11---12--12--12--12-----12--12--12--12-12-| 
A|--------------------------------------------------------------------------| 
E|--------------------------------------------------------------------------| 
	  

Request the video "She Will Be Loved"  -  Send "She Will Be Loved" Ringtone to your Cell

there isn't a video lesson for this song

request
e-chords
Search
auto scroll beats size up size down change color hide chords drawings
tab show chords e-chords YouTube Clip e-chords hide all tabs e-chords go to top tab